Oops, an error
Loading. Please wait.
We have an official Follow You Home tab made by UG professional guitarists. Check out the tab »
×
14,369 views 6 this week
2 commentsread comments
1 2 3 4 5
1 last vote to show rating
add to favorites
×
Save as Personal and add changes to this tab that will be seen only by you. Learn more ›
×
You can save this tab as Personal to edit and correct it or add notes. All changes will be seen only by you. Learn more »
launch autoscroll
font size
0
reset
how to read this tab
guitar tuner
edit
Autoscroll
slow
fast
+/-
esc
set tempo
stop
Follow You Home – Nickelback

Drop C

Into/verse (on verse palm mute)
d------------------------------------------------------|
a------------------------------------------------------|
f------------------------------------------------------|
c-7-5-7-5-7-10-7-5-7-0-12h10-10-7-5-7-3-10h12----------|
g-7-5-7-5-7-10-7-5-7-0-12h10-10-7-5-7-3-10h12----------|
C-7-5-7 5-7-10-7-5-7-0-12h10-10-7-5-7-3-10h12----------| x2


solo after intro
d-----------------------------------------------------------------|
a-------------------------5s8s10s13s15s17-15h17p15---15h17p15-----|
f-2-5-2-0-2-5-2-0-2-5-2-5-------------------------14---------14b--|
c-----------------------------------------------------------------|
g-----------------------------------------------------------------|
C-----------------------------------------------------------------|

pre chorus

d----------------------------------------------------------------------|
a----------------------------------------------------------------------|
f----------------------------------------------------------------------|
c-3-----5-3-5-0----5-0----7-5-7-0-12h10--------------------------------|
g-3-----5-3-5-0----5-0----7-5-7-0-12h10--------------------------------|
C-3-x14-5-3-5-0-x5-5-0-x5-7-5-7-0-12h10--------------------------------|

d----------------------------------------|
a----------------------------------------|
f----------------------------------------|
c--7-5-7-3-10h12-3-x14-5-3-5-0-x5-5-0x5--|
g--7-5-7-3-10h12-3-x14-5-3-5-0-x5-5-0x5--|
C--7-5-7-3-10h12-3-x14-5-3-5-0-x5-5-0x5--|


chorus

d----------------------------------------------------------|
a----------------------------------------------------------|
f----------------------------------------------------------|
c-7-0-3h5-3-0-3-0-3h5-5-5-5-5-7-0-12h10-10-7-5-7-3-10h12---|
g-7-0-3h5-3-0-3-0-3h5-5-5-5-5-7-0-12h10-10-7-5-7-3-10h12---|
C-7-0-3h5-3-0-3-0-3h5-5-5-5-5-7-0-12h10-10-7-5-7-3-10h12—--|

picking part of chorus
d--------------------------------------------|
a-7-9-2-5-7-5-7-5-2--------------------------|
f--------------------------------------------|
c--------------------------------------------|
g--------------------------------------------|
C--------------------------------------------| x4

2nd solo

d------------------------------|
a------------------------------|
f-12h14p12---------------------|
c---------14-------------------|
g------------------------------|
C------------------------------| x4

d-------------------------------------------------------------|
a-------------------------------------------------------------|
f---12-14-14-14-12-14-17-14-12-14-12--------------------------|
c-14--------------------------------14-12-10-12-10h12h14-10-7-|
g-------------------------------------------------------------|
C-------------------------------------------------------------|

verse

pre-chorus

chorus

3rd solo
d--------------------------------------------------|
a--------------------------------------------------|
f--------------------------------7h9-7h9-7h9-------|
c--7-7--------------7--------7------7---7----------|
g-0---0-3-0-3-0-3h5---5-3-5-0---0------------0-3-5-|
C--------------------------------------------------|

d--------------------------------------------------------------|
a--------------------------------------------------------------|
f--5h7p5-7h9-7-9-7-9s12-12-9-7h9p7—5-7p5-----------------------|
c—7-------------------------------7-----7-5---5-7-7-5----------|
g------------------------------------------5h7-------7-5h7p5-0-|
C--------------------------------------------------------------|

d----------------------------------------------------------------------|
a----------------------------------------------------------------------|
f-----------------7-9-7s14-14-14-14--------------7-5-------------------|
c-7-5-7-10-7-5-7-------------------7-5-7-10-7-5-7---7-7s10-7-7-*10-7-7-|
g-7-5-7-10-7-5-7-7-----------------7-5-7-10-7-5-7----------------------|
C-7-5-7-10-7-5-7-------------------7-5-7-10-7-5-7----------------------|

d-----------------------------------------------------------------|
a-----------------------------------------------------------------|
f--------9-12-9-12-16b-5h7-5h7-5h7-5-5----------------------------|
c-10-7-7----------------------------7-7-7-------------------------|
g-----------------------------------------------------------------|
C-----------------------------------------------------------------|

*guitar 2 plays this:
d----------------------------|
a----------------------------|
f----------------------------|
c-7-5-7-10-7-5-7-------------|
g-7-5-7-10-7-5-7-------------|
C-7-5-7-10-7-5-7-------------|

verse

pre-chorus/chorus

            
            
Suggest correction
Creating personal tab
Creating personal tab
You can edit any tab online and save it as your Personal.

You can edit, replace or remove any tab part or add personal notes – all changes will be seen only by you.

Personal tabs can be accessed anytime from any device, even offline.
Learn more »
Give kudos to tab author, rate the tab!
1 2 3 4 5
comments
print report bad tab
2 comments total.
0 reply
cassadamius352 30 Dec 05, 2005 04:18 PM

Sorry, I posted a part of the 3rd solo wrong... here is the correction:

3rd solo (last part)

d-----------------------------------------------------------------
a-----------------------------------------------------------------
f-------12-9-12-9-12-17b------------------------------------------
c-10-7-7-----------------7h10-7h10-7h10-10p7p5-10-7-5-------------
g-----------------------------------------------------------------
C----------------------------------------------------5------------

0 reply
emberlylp 10 Apr 20, 2006 05:18 AM

your pre-chorus isnt right

guest
You may want to rate the tab now too:
select rating
Wanna post a correction for this tab? Suggest correction