Oops, an error
Loading. Please wait.

Just For tab

version 3
version 3

Whole song

Interactive

2,656 views 1 this week
no commentswrite comment
1 2 3 4 5
3 more votes to show rating
add to favorites
×
Save as Personal and add changes to this tab that will be seen only by you. Learn more ›
×
You can save this tab as Personal to edit and correct it or add notes. All changes will be seen only by you. Learn more »
launch autoscroll
font size
0
reset
how to read this tab
guitar tuner
edit
Autoscroll
slow
fast
+/-
esc
set tempo
stop
Just For
Nickelback
Silver Side Up (2001)

Just For: written by Chad Kroeger and Nickelback

NOTE: GTR III is just GTR II with a Reverb effect.

GRT I - Drop D Tuning "Chad Kroeger" Distortion (e,B,G,D,A,D)
GTR II - Drop D Tuning "Ryan Peake" Distortion (e,B,G,D,A,D)
GTR III - Drop D Tunning "Ryan Peake" Distortion w. Reverb (e,B,G,D,A,D)

Intro

  GTR I,II
e|-------------------------|
B|-------------------------|
G|-------------------------|
D|-------------------------|
A|--x--x--x--x--x--x--x--x-|
D|--x--x--x--x--x--x--x--x-|

Main Riff

  GTR I
e|-------------------------------------------------|
B|-------------------------------------------------|
G|--9/10-10-10-10-------------12/13----12/13-------|
D|--x--x--x--x--x--------------x--x-----x--x-------|
A|--7/-8--8--8--8-----x--x--x-10/11--0-10/11--x--x-|
D|--------------------x--x--x--------0--------x--x-|
 |
 |GTR II
e|-------------------------------------------------|
B|-------------------------------------------------|
G|-------------------------------------------------|
D|--2h-3--3--3--3--------------5--6-----5--6-------|
A|--2h-3--3--3--3-----x--x--x--5--6--0--5--6--x--x-|
D|--2h-3--3--3--3-----x--x--x--5--6--0--5--6--x--x-|

  GTR I
e|-------------------------------------------------|
B|-------------------------------------------------|
G|--7/-8--8--8--8----------------------------------|
D|--x--x--x--x--x----------------------------------|
A|--5/-6--6--6--6-----x--x--x--x--x--x--x--x--x--x-|
D|--------------------x--x--x--x--x--x--x--x--x--x-|
 |
 |GTR II
e|-------------------------------------------------|
B|-------------------------------------------------|
G|-------------------------------------------------|
D|--0h-1--1--1--1----------------------------------|
A|--0h-1--1--1--1-----x--x--x--x--x--x--x--x--x--x-|
D|--0h-1--1--1--1-----x--x--x--x--x--x--x--x--x--x-|

  GTR I
e|-------------------------------------------------|
B|-------------------------------------------------|
G|--9/10-10-10-10-------------12/13----12/13-------|
D|--x--x--x--x--x--------------x--x-----x--x-------|
A|--7/-8--8--8--8-----x--x--x-10/11--0-10/11--x--x-|
D|--------------------x--x--x--------0--------x--x-|
 |
 |GTR II
e|-------------------------------------------------|
B|-------------------------------------------------|
G|-------------------------------------------------|
D|--2h-3--3--3--3--------------5--6-----5--6-------|
A|--2h-3--3--3--3-----x--x--x--5--6--0--5--6--x--x-|
D|--2h-3--3--3--3-----x--x--x--5--6--0--5--6--x--x-|

  GTR I
e|-------------------------------------------------|
B|-------------------------------------------------|
G|--7/-8--8--8--8----------------------------------|
D|--x--x--x--x--x----------------------------------|
A|--5/-6--6--6--6-----x--x--x--x--x--x--x--x--x--x-|
D|--------------------x--x--x--x--x--x--x--x--x--x-|
 |
 |GTR II
e|-------------------------------------------------|
B|-------------------------------------------------|
G|-------------------------------------------------|
D|--0h-1--1--1--1----------------------------------|
A|--0h-1--1--1--1-----x--x--x--x--x--x--x--x--x--x-|
D|--0h-1--1--1--1-----x--x--x--x--x--x--x--x--x--x-|

Pre Verse

  GTR I
e|-------------|-------------|-------------|-------------|
B|-------------|-------------|-------------|-------------|
G|-10----------|--8----------|-10----------|--8----------|
D|--x----------|--x----------|--x----------|--x----------|
A|--8----------|--6----------|--8----------|--6----------|
D|-------------|-------------|-------------|-------------|
 |
 |GTR II
e|-------------|-------------|-------------|-------------|
B|-------------|-------------|-------------|-------------|
G|-------------|-------------|-------------|-------------|
D|--3----------|--1----------|--3----------|--1----------|
A|--3----------|--1----------|--3----------|--1----------|
D|--3----------|--1----------|--3----------|--1----------|

Verse

  GTR III
e|-------------------------------------------------|
B|-------------------------------------------------|
G|--------------------------------------6----------|
D|--------5h-6--------------5----------------------|
A|-------------------------------------------------|
D|-------------------------------------------------|

  GTR III
e|-------------------------------------------------|
B|-------------------------------------------------|
G|--5----------------------------------------------|
D|-------------------------------------------------|
A|--------------6----------------------------------|
D|-------------------------------------------------|

  GTR III
e|-------------------------------------------------|
B|-------------------------------------------------|
G|--------------------------------------6----------|
D|--------5h-6--------------5----------------------|
A|-------------------------------------------------|
D|-------------------------------------------------|

  GTR III
e|-------------------------------------------------|
B|-------------------------------------------------|
G|--5----------------------------------------------|
D|--------------------------8--8--------8----------|
A|--------------6--6--6--6--------6-----------6----|
D|-------------------------------------------------|
                      .  .        .

  GTR III
e|-------------------------------------------------|
B|-------------------------------------------------|
G|--------------------------------------6----------|
D|--------5h-6--------------5----------------------|
A|-------------------------------------------------|
D|-------------------------------------------------|

  GTR III
e|-------------------------------------------------|
B|-------------------------------------------------|
G|--5----------------------------------------------|
D|-------------------------------------------------|
A|--------------6----------------------------------|
D|-------------------------------------------------|

  GTR III
e|-------------------------------------------------|
B|-------------------------------------------------|
G|-------------------------------------------------|
D|--5--5--5h-6--------------5-----------------5--5-|
A|-------------------------------------------------|
D|-------------------------------------------------|
    .  .                                      .  .

  GTR III
e|-------------------------------------------------|
B|-------------------------------------------------|
G|-------------------------------------------------|
D|--5h-6--5-----------------8--8--------8----------|
A|--------------6-----6--6--------6-----------6----|
D|-------------------------------------------------|
                      .  .        .

  GTR III
e|-------------------------------------------------|
B|-------------------------------------------------|
G|--------------------------------------6----------|
D|--------5h-6--------------5----------------------|
A|-------------------------------------------------|
D|-------------------------------------------------|

  GTR III
e|-------------------------------------------------|
B|-------------------------------------------------|
G|--5----------------------------------------------|
D|-------------------------------------------------|
A|--------------6----------------------------------|
D|-------------------------------------------------|

  GTR III
e|-------------------------------------------------|
B|-------------------------------------------------|
G|--------------------------------------6----------|
D|--------5h-6--------------5----------------------|
A|-------------------------------------------------|
D|-------------------------------------------------|

  GTR III
e|--------------3-----------------4-----3\---------|
B|-------------------------------------------------|
G|--5----------------------------------------------|
D|-------------------------------------------------|
A|-------------------------------------------------|
D|-------------------------------------------------|

  GTR III
e|-------------------------------------------------|
B|-------------------------------------------------|
G|--------------------------------------6----------|
D|--------5h-6--------------5----------------------|
A|-------------------------------------------------|
D|-------------------------------------------------|

  GTR III
e|-------------------------------------------------|
B|-------------------------------------------------|
G|--5----------------------------------------------|
D|-------------------------------------------------|
A|--------------6-----6----------------------------|
D|-------------------------------------------------|

  GTR III
e|-------------------------------------------------|
B|-------------------------------------------------|
G|-------------------------------------------------|
D|-------------------------------------------------|
A|--------8----------------------------------------|
D|-------------------------------------------------|

  GTR I,II
e|-------------------------------------------------|
B|-------------------------------------------------|
G|-------------------------------------------------|
D|-------------------------------------------------|
A|--x--x-----x-----x--x--x-----x-----x--x--x--x--x-|
D|--x--x-----x-----x--x--x-----x-----x--x--x--x--x-|

Chorus

  GTR I
e|-------------------------------------------------|
B|-------------------------------------------------|
G|-10----------13-----------8----------------------|
D|--x-----------x-----------x----------------------|
A|--8----------11-----------6----------------------|
D|-------------------------------------------------|
 |
 |GTR II
e|-------------------------------------------------|
B|-------------------------------------------------|
G|-------------------------------------------------|
D|--3-----------6-----------1----------------------|
A|--3-----------6-----------1----------------------|
D|--3-----------6-----------1----------------------|

  GTR I
e|-------------------------------------------------|
B|-------------------------------------------------|
G|--------8-----8----------------------------------|
D|--------x-----x----------------------------------|
A|--------6-----6-----x--x--x--x--x--x--x--x--x--x-|
D|--------------------x--x--x--x--x--x--x--x--x--x-|
 |
 |GTR II
e|-------------------------------------------------|
B|-------------------------------------------------|
G|-------------------------------------------------|
D|--------1-----1----------------------------------|
A|--------1-----1-----x--x--x--x--x--x--x--x--x--x-|
D|--------1-----1-----x--x--x--x--x--x--x--x--x--x-|

  GTR I
e|-------------------------------------------------|
B|-------------------------------------------------|
G|--9/10-10-10-10-------------12/13----13/15-------|
D|--x--x--x--x--x--------------x--x-----x--x-------|
A|--7/-8--8--8--8-----x--x--x-10/11--0-11/13--x--x-|
D|--------------------x--x--x--------0--------x--x-|
 |
 |GTR II
e|-------------------------------------------------|
B|-------------------------------------------------|
G|-------------------------------------------------|
D|--2h-3--3--3--3--------------5--6-----6--8-------|
A|--2h-3--3--3--3-----x--x--x--5--6--0--6--8--x--x-|
D|--2h-3--3--3--3-----x--x--x--5--6--0--6--8--x--x-|

  GTR I
e|-------------------------------------------------|
B|-------------------------------------------------|
G|--7/-8--8--8--8----------------------------------|
D|--x--x--x--x--x----------------------------------|
A|--5/-6--6--6--6-----x--x--x--x--x--x--x--x--x--x-|
D|--------------------x--x--x--x--x--x--x--x--x--x-|
 |
 |GTR II
e|-------------------------------------------------|
B|-------------------------------------------------|
G|-------------------------------------------------|
D|--0h-1--1--1--1----------------------------------|
A|--0h-1--1--1--1-----x--x--x--x--x--x--x--x--x--x-|
D|--0h-1--1--1--1-----x--x--x--x--x--x--x--x--x--x-|

  GTR I
e|-------------------------------------------------|
B|-------------------------------------------------|
G|-10----------13-----------8----------------------|
D|--x-----------x-----------x----------------------|
A|--8----------11-----------6----------------------|
D|-------------------------------------------------|
 |
 |GTR II
e|-------------------------------------------------|
B|-------------------------------------------------|
G|-------------------------------------------------|
D|--3-----------6-----------1----------------------|
A|--3-----------6-----------1----------------------|
D|--3-----------6-----------1----------------------|

  GTR I
e|-------------------------------------------------|
B|-------------------------------------------------|
G|--------8-----8----------------------------------|
D|--------x-----x----------------------------------|
A|--------6-----6-----x--x--x--x--x--x--x--x--x--x-|
D|--------------------x--x--x--x--x--x--x--x--x--x-|
 |
 |GTR II
e|-------------------------------------------------|
B|-------------------------------------------------|
G|-------------------------------------------------|
D|--------1-----1----------------------------------|
A|--------1-----1-----x--x--x--x--x--x--x--x--x--x-|
D|--------1-----1-----x--x--x--x--x--x--x--x--x--x-|

  GTR I
e|-------------------------------------------------|
B|-------------------------------------------------|
G|-10----------13-----------8----------------------|
D|--x-----------x-----------x----------------------|
A|--8----------11-----------6----------------------|
D|-------------------------------------------------|
 |
 |GTR II
e|-------------------------------------------------|
B|-------------------------------------------------|
G|-------------------------------------------------|
D|--3-----------6-----------1----------------------|
A|--3-----------6-----------1----------------------|
D|--3-----------6-----------1----------------------|

  GTR I
e|-------------------------------------------------|
B|-------------------------------------------------|
G|--------------8----------------------------------|
D|--------------x----------------------------------|
A|--------------6-----x--x--x--x--x--x-----x--x--x-|
D|--------------------x--x--x--x--x--x-----x--x--x-|
 |
 |GTR II
e|-------------------------------------------------|
B|-------------------------------------------------|
G|-------------------------------------------------|
D|--------------1----------------------------------|
A|--------------1-----x--x--x--x--x--x-----x--x--x-|
D|--------------1-----x--x--x--x--x--x-----x--x--x-|

Main Riff

Pre Verse 2

  GTR I
e|-------------|-------------|-------------|
B|-------------|-------------|-------------|
G|-10----------|--8----------|-10----------|
D|--x----------|--x----------|--x----------|
A|--8----------|--6----------|--8----------|
D|-------------|-------------|-------------|
 |
 |GTR II
e|-------------|-------------|-------------|
B|-------------|-------------|-------------|
G|-------------|-------------|-------------|
D|--3----------|--1----------|--3----------|
A|--3----------|--1----------|--3----------|
D|--3----------|--1----------|--3----------|

  GTR I
e|-------------------------------------------------|
B|-------------------------------------------------|
G|--8----------------------------------------------|
D|--x----------------------------------------------|
A|--6----------------------------------------------|
D|-------------------------------------------------|
 |
 |GTR II
e|-------------------------------------------------|
B|-------------------------------------------------|
G|-------------------------------------------------|
D|--3--1-----1-----0--3--1-----1-------------------|
A|--3--1-----1-----0--3--1-----1-----x--x--x--x--x-|
D|--3--1-----1-----0--3--1-----1-----x--x--x--x--x-|

Verse      - 1x
Chorus     - 1x
Main Riff  - 2x
Pre Verse  - 1x

Bridge

  GTR I,II
e|-------------------------------------------------|
B|-------------------------------------------------|
G|-------------------------------------------------|
D|-------------------------------------------------|
A|--------3--3--3--3--3-----------------3--3-------|
D|--------3--3--3--3--3-----------------3--3-------|
 |        .  .  .  .  .                 .  .
 |GTR III
e|-------------------------------------------------|
B|-------------------------------------------------|
G|--------------------------------------6----------|
D|--------5h-6--------------5----------------------|
A|-------------------------------------------------|
D|-------------------------------------------------|

  GTR I,II
e|-------------------------------------------------|
B|-------------------------------------------------|
G|-------------------------------------------------|
D|-------------------------------------------------|
A|--------------1--1--------------1--1-----1-----1-|
D|--------------1--1--------------1--1-----1-----1-|
 |              .  .              .  .     .     .
 |GTR III
e|-------------------------------------------------|
B|-------------------------------------------------|
G|--5----------------------------------------------|
D|--------------------------8----------------------|
A|--------------6-----6-----------6----------------|
D|-------------------------------------------------|                                     

  GTR I,II
e|-------------------------------------------------|
B|-------------------------------------------------|
G|-------------------------------------------------|
D|-------------------------------------------------|
A|--1--1--1--3--3--3--3-----------------3--3-------|
D|--1--1--1--3--3--3--3-----------------3--3-------|
 |  .  .  .  .  .  .  .                 .  .
 |GTR III
e|-------------------------------------------------|
B|-------------------------------------------------|
G|--------------------------------------6----------|
D|--------5h-6--------------5----------------------|
A|-------------------------------------------------|
D|-------------------------------------------------|

  GTR I,II
e|-------------------------------------------------|
B|-------------------------------------------------|
G|-------------------------------------------------|
D|-------------------------------------------------|
A|--3--1--1--1--1--1-------------------------------|
D|--3--1--1--1--1--1-------------------------------|
 |  .  .  .  .  .  .                        
 |GTR III
e|-------------------------------------------------|
B|-------------------------------------------------|
G|--5----------------------------------------------|
D|-------------------------------------------------|
A|--------------6----------------------------------|
D|-------------------------------------------------|

  GTR I,II
e|-------------------------------------------------|
B|-------------------------------------------------|
G|-------------------------------------------------|
D|-------------------------------------------------|
A|--------3--3--3--3--3-----------------3--3-------|
D|--------3--3--3--3--3-----------------3--3-------|
 |        .  .  .  .  .                 .  .
 |GTR III
e|-------------------------------------------------|
B|-------------------------------------------------|
G|--------------------------------------6----------|
D|--------5h-6--------------5----------------------|
A|-------------------------------------------------|
D|-------------------------------------------------|

  GTR I,II
e|-------------------------------------------------|
B|-------------------------------------------------|
G|-------------------------------------------------|
D|-------------------------------------------------|
A|--------------1--1--------------1--1-----1-----1-|
D|--------------1--1--------------1--1-----1-----1-|
 |              .  .              .  .     .     .
 |GTR III
e|-------------------------------------------------|
B|-------------------------------------------------|
G|--5----------------------------------------------|
D|--------------------------8--8--------8----------|
A|--------------6-----6--6--------6-----------6----|
D|-------------------------------------------------|
                      .  .        .

  GTR I,II
e|-------------------------------------------------|
B|-------------------------------------------------|
G|-------------------------------------------------|
D|-------------------------------------------------|
A|--1--1--1--3--3--3--3-----------------3--3-------|
D|--1--1--1--3--3--3--3-----------------3--3-------|
 |  .  .  .  .  .  .  .                 .  .
 |GTR III
e|-------------------------------------------------|
B|-------------------------------------------------|
G|--------------------------------------6----------|
D|--------5h-6--------------5----------------------|
A|-------------------------------------------------|
D|-------------------------------------------------|

  GTR I,II
e|-------------------------------------------------|
B|-------------------------------------------------|
G|-------------------------------------------------|
D|-------------------------------------------------|
A|--3--1-----1-----0--3--1-----1-----0-12\---------|
D|--3--1-----1-----0--3--1-----1-----0-12\---------|
 |  .  .     .     .  .  .     .
 |GTR III
e|-------------------------------------------------|
B|-------------------------------------------------|
G|--5----------------------------------------------|
D|-------------------------------------------------|
A|-------------------------------------------------|
D|-------------------------------------------------|

Interlude

  GTR I
e|-------------------------------------------------|
B|-------------------------------------------------|
G|-------------------------------------------------|
D|--2h-3--------3--------------5--6-----5--6-------|
A|--2h-3--3--3--3-----x--x--x--5--6--0--5--6--x--x-|
D|--2h-3--3--3--3-----x--x--x--5--6--0--5--6--x--x-|
 |        .  .                       .
 |GTR II
e|-------------------------------------------------|
B|-------------------------------------------------|
G|-------------------------------------------------|
D|--2h-3--3--3--3--------------5--6-----5--6-------|
A|--2h-3--3--3--3-----x--x--x--5--6--0--5--6--x--x-|
D|--2h-3--3--3--3-----x--x--x--5--6--0--5--6--x--x-|

  GTR I
e|-------------------------------------------------|
B|-------------------------------------------------|
G|-------------------------------------------------|
D|--0h-1--1--1--1----------------------------------|
A|--0h-1--1--1--1-----x--x--8--8--8--8--9--9--x--x-|
D|--0h-1--1--1--1-----x--x--8--8--8--8--9--9--x--x-|
 |                          .  .  .  .  .  .
 |GTR II
e|-------------------------------------------------|
B|-------------------------------------------------|
G|-------------------------------------------------|
D|--0h-1--1--1--1-----------8--8--8--8--9--9-------|
A|--0h-1--1--1--1-----x--x--8--8--8--8--9--9--x--x-|
D|--0h-1--1--1--1-----x--x--8--8--8--8--9--9--x--x-|

  GTR I
e|-------------------------------------------------|
B|-------------------------------------------------|
G|-------------------------------------------------|
D|--2h-3--------3--------------5--6-----5--6-------|
A|--2h-3--3--3--3-----x--x--x--5--6--0--5--6--x--x-|
D|--2h-3--3--3--3-----x--x--x--5--6--0--5--6--x--x-|
 |        .  .                       .
 |GTR II
e|-------------------------------------------------|
B|-------------------------------------------------|
G|-------------------------------------------------|
D|--2h-3--3--3--3--------------5--6-----5--6-------|
A|--2h-3--3--3--3-----x--x--x--5--6--0--5--6--x--x-|
D|--2h-3--3--3--3-----x--x--x--5--6--0--5--6--x--x-|

  GTR I
e|-------------------------------------------------|
B|-------------------------------------------------|
G|-------------------------------------------------|
D|--0h-1--1--1--1----------------------------------|
A|--0h-1--1--1--1-----x--x--8--8--8--8--9--9--x--x-|
D|--0h-1--1--1--1-----x--x--8--8--8--8--9--9--x--x-|
 |                          .  .  .  .  .  .
 |GTR II
e|-------------------------------------------------|
B|-------------------------------------------------|
G|-------------------------------------------------|
D|--0h-1--1--1--1-----------8--8--8--8--9--9-------|
A|--0h-1--1--1--1-----x--x--8--8--8--8--9--9--x--x-|
D|--0h-1--1--1--1-----x--x--8--8--8--8--9--9--x--x-|

  GTR I,II
e|-------------------------------------------------|
B|-------------------------------------------------|
G|-------------------------------------------------|
D|--3--------1--------6--------1--------8--8--8----|
A|--3--------1--------6--------1--------8--8--8----|
D|--3--------1--------6--------1--------8--8--8----|

  GTR I,II
e|-------------------------------------------------|
B|-------------------------------------------------|
G|-------------------------------------------------|
D|--3--------1--------6--------1--------8--8--8----|
A|--3--------1--------6--------1--------8--8--8----|
D|--3--------1--------6--------1--------8--8--8----|

  GTR I,II
e|-------------------------------------------------|
B|-------------------------------------------------|
G|-------------------------------------------------|
D|--3--------1--------6--------1--------8--8--8----|
A|--3--------1--------6--------1--------8--8--8----|
D|--3--------1--------6--------1--------8--8--8----|

  GTR I,II
e|-------------------------------------------------|
B|-------------------------------------------------|
G|-------------------------------------------------|
D|--3--------1--------6--------1--------8--8--8----|
A|--3--------1--------6--------1--------8--8--8----|
D|--3--------1--------6--------1--------8--8--8----|

Chorus
Main Riff

Outro

  GTR I
e|-------------------------------------------------|
B|-------------------------------------------------|
G|--9/10-10-10-10-------------12/13----12/13-------|
D|--x--x--x--x--x--------------x--x-----x--x-------|
A|--7/-8--8--8--8-----x--x--x-10/11--0-10/11--x--x-|
D|--------------------x--x--x--------0--------x--x-|
 |
 |GTR II
e|-------------------------------------------------|
B|-------------------------------------------------|
G|-------------------------------------------------|
D|--2h-3--3--3--3--------------5--6-----5--6-------|
A|--2h-3--3--3--3-----x--x--x--5--6--0--5--6--x--x-|
D|--2h-3--3--3--3-----x--x--x--5--6--0--5--6--x--x-|

  GTR I
e|-------------------------------------------------|
B|-------------------------------------------------|
G|--7/-8--8--8--8----------------------------------|
D|--x--x--x--x--x----------------------------------|
A|--5/-6--6--6--6-----x--x--x--x--x--x--x--x--x--x-|
D|--------------------x--x--x--x--x--x--x--x--x--x-|
 |
 |GTR II
e|-------------------------------------------------|
B|-------------------------------------------------|
G|-------------------------------------------------|
D|--0h-1--1--1--1----------------------------------|
A|--0h-1--1--1--1-----x--x--x--x--x--x--x--x--x--x-|
D|--0h-1--1--1--1-----x--x--x--x--x--x--x--x--x--x-|

  GTR I
e|-------------------------------------------------|
B|-------------------------------------------------|
G|--9/10-10-10-10-------------12/13----12/13-------|
D|--x--x--x--x--x--------------x--x-----x--x-------|
A|--7/-8--8--8--8-----x--x--x-10/11--0-10/11--x--x-|
D|--------------------x--x--x--------0--------x--x-|
 |
 |GTR II
e|-------------------------------------------------|
B|-------------------------------------------------|
G|-------------------------------------------------|
D|--2h-3--3--3--3--------------5--6-----5--6-------|
A|--2h-3--3--3--3-----x--x--x--5--6--0--5--6--x--x-|
D|--2h-3--3--3--3-----x--x--x--5--6--0--5--6--x--x-|

  GTR I
e|-------------------------------------------------|
B|-------------------------------------------------|
G|--------------------8----------------------------|
D|--------------------x----------------------------|
A|--x--x--x--x--x--x--6----------------------------|
D|--x--x--x--x--x--x-------------------------------|
 |
 |GTR II
e|-------------------------------------------------|
B|-------------------------------------------------|
G|-------------------------------------------------|
D|--------------------1----------------------------|
A|--x--x--x--x--x--x--1----------------------------|
D|--x--x--x--x--x--x--1----------------------------|


| b  bend
| r  release bend
|trp triplet
|PH. pinch harmonic
|fbk feedback
| .  palm-mute
| /  slide up
| \  slide down
| h  hammer-on
| p  pull-off
| ~  vibrato
|(7) harmonic
| x  Mute note
===============================================================================

            
            
Suggest correction
Creating personal tab
Creating personal tab
You can edit any tab online and save it as your Personal.

You can edit, replace or remove any tab part or add personal notes – all changes will be seen only by you.

Personal tabs can be accessed anytime from any device, even offline.
Learn more »
Give kudos to tab author, rate the tab!
1 2 3 4 5
comments
print report bad tab
guest
You may want to rate the tab now too:
select rating
Wanna post a correction for this tab? Suggest correction