Oops, an error
Loading. Please wait.

Kiss It Goodbye tab

version 2
version 2

Whole song

798 views 9 this week
no commentswrite comment
1 2 3 4 5
x 3
add to favorites
×
Save as Personal and add changes to this tab that will be seen only by you. Learn more ›
×
You can save this tab as Personal to edit and correct it or add notes. All changes will be seen only by you. Learn more »
launch autoscroll
font size
0
reset
how to read this tab
guitar tuner
edit
Autoscroll
slow
fast
+/-
esc
set tempo
stop
Artist: Nickelback
Song: Kiss It Goodbye
Album: Here And Now
Tuning: Drop B (BF#BEG#C#)


This is the 7th Song from the album "Here And Now".
I really don't know if it's the correct tuning but for me it sounds correct.
I think Chad Kroeger plays this song on a 7-string-guitar (Standard-Tuning)
and Ryan Peake on a 6-string-guitar (Drop B).
I play this song in Standard-Tuning.

Here are the riffs for that song and there's a riff-order on the bottom.


* = Palm Muted


Riff 1:

C#|-----------------|-----------------|
G#|-----------------|-----------------|
E |-----------5-----|-----------------|
B |-7-5-7-----5---5-|-7-5-7---3---3---|
F#|-7-5-7-----3---5-|-7-5-7---3---3---|
B |-7-5-7---------5-|-7-5-7---3---3---|


Riff 2:

    *   *   *   *     *   *   *   *
C#|-----------------|-----------------|
G#|-----------------|-----------------|
E |-----------------|-----------------|
B |-----------------|-----------------|
F#|-----3-3-----5-5-|-----3-3---------|
B |-7-7-----5-5-----|-7-7-----5-5-3-3-|


Riff 3:

    *   *   *   *     *   *   *   *
C#|-----------------|-----------------|
G#|-----------------|-----------------|
E |-----5-5-----7-7-|-----5-5---------|
B |-7-7-5-5-5-5-7-7-|-7-7-5-5-5-5-3-3-|
F#|-7-7-3-3-5-5-5-5-|-7-7-3-3-5-5-3-3-|
B |-7-7-----5-5-----|-7-7-----5-5-3-3-|


Riff 4:

C#|-----------------|-----------------|
G#|-3~--------------|-----------------|
E |-2~--------------|-----------------|
B |-0~--------------|-----------------|
F#|-0~--------------|-----------------|
B |-0~--------------|-----------------|


Riff-order:

Intro:      Riff 1 (2x)
Pre-Verse:  Riff 2 (2x)
Verse 1:    Riff 2 (2x)
Interlude:  Riff 3
Verse 2:    Riff 2 (2x)
Interlude:  Riff 3
Pre-Chorus: Riff 4, Riff 3, Riff 4
Chorus:     Riff 3 (4x)
Interlude:  Riff 2 (2x)
Verse 3:    Riff 2 (2x)
Interlude:  Riff 3
Verse 4:    Riff 2 (2x)
Interlude:  Riff 3
Pre-Chorus: Riff 4, Riff 3, Riff 4
Chorus:     Riff 3 (4x)
Bridge:     Riff 1 (4x)
Interlude:  Riff 2 (2x)
Chorus:     Riff 3 (4x)
Outro:      Riff 1 (4x)

            
            
Suggest correction
Creating personal tab
Creating personal tab
You can edit any tab online and save it as your Personal.

You can edit, replace or remove any tab part or add personal notes – all changes will be seen only by you.

Personal tabs can be accessed anytime from any device, even offline.
Learn more »
Give kudos to tab author, rate the tab!
1 2 3 4 5
comments
print report bad tab
guest
You may want to rate the tab now too:
select rating
Wanna post a correction for this tab? Suggest correction