Oops, an error
Loading. Please wait.

Something In Your Mouth tab

version 3
version 3

Whole song

Interactive

20,479 views 6 this week
2 commentsread comments
1 2 3 4 5
x 3
add to favorites
×
Save as Personal and add changes to this tab that will be seen only by you. Learn more ›
×
You can save this tab as Personal to edit and correct it or add notes. All changes will be seen only by you. Learn more »
launch autoscroll
font size
0
reset
how to read this tab
guitar tuner
backing track
0:00
0:00
edit
Autoscroll
slow
fast
+/-
esc
set tempo
stop
Author
Tabbers playing skills
beginner +
Nickelback-Something In Your Mouth
Dark Horse(2008)-Track 1
Guitar Tab
Tabbed by Ryan Ryngaert
Drop D Tuning (D, A, D, G, B, E)

Intro (Play Twice)
E-----------------------------------|
B-----------------------------------|
G-----------------------------------|
D-----------------------------------|
A------------3------3------3------5-|
D-12\-0-0-/5---0-/5---0-/5---0-/5---|

E-----------------------------|
B-----------------------------|
G-----------------------------|
D-----------------------------|
A------------3------3-6-5-4-3-|
D-12\-0-0-/5---0-/5---6-5-4-3-|

Verse
I'm not sure what he's playing when singing

(Play after singing)
E-----------------------------------|x2
B-----------------------------------|
G-----------------------------------|
D-----------------------------------|
A------------3------3------3------5-|
D-12\-0-0-/5---0-/5---0-/5---0-/5---|

E-----------------------------|
B-----------------------------|
G-----------------------------|
D-----------------------------|
A------------3------3-6-5-4-3-|
D-12\-0-0-/5---0-/5---6-5-4-3-|

Pre-Chorus
E---------------------------------------|
B---------------------------------------|
G---------------------------------------|
D---------------------------------------|
A----------------------3------3-6-5-4-3-|
D---------------0-0-/5---0-/5---6-5-4-3-|

Chorus
E----------------------------------------------------------------|x2
B----------------------------------------------------------------|
G----------------------------------------------------------------|
D----------------------------------------------------------------|
A------------3------3------3------5-------------3------3-6-5-4-3-|
D-12\-0-0-/5---0-/5---0-/5---0-/5----12\-0-0-/5---0-/5---6-5-4-3-|

E----------------------------------------------|
B----------------------------------------------|
G-5-5-5-5-5-5-5-3/5-5-5-5-5--------------------|
D-5-5-5-5-5-5-5-3/5-5-5-5-5-3-5-5-5-5-5-5-5-3--|
A-3-3-3-3-3-3-3-1/3-3-3-3-3-3-5-5-5-5-5-5-5-3--|
D---------------------------3-5-5-5-5-5-5-5-3--|

Post-Chorus (Play Once)
E-----------------------------------|
B-----------------------------------|
G-----------------------------------|
D-----------------------------------|
A------------3------3------3------5-|
D-12\-0-0-/5---0-/5---0-/5---0-/5---|

E-----------------------------|
B-----------------------------|
G-----------------------------|
D-----------------------------|
A------------3------3-6-5-4-3-|
D-12\-0-0-/5---0-/5---6-5-4-3-|

Verse
(Play after singing)
E-----------------------------------|x2
B-----------------------------------|
G-----------------------------------|
D-----------------------------------|
A------------3------3------3------5-|
D-12\-0-0-/5---0-/5---0-/5---0-/5---|

E-----------------------------|
B-----------------------------|
G-----------------------------|
D-----------------------------|
A------------3------3-6-5-4-3-|
D-12\-0-0-/5---0-/5---6-5-4-3-|

Pre-Chorus
E---------------------------------------|
B---------------------------------------|
G---------------------------------------|
D---------------------------------------|
A----------------------3------3-6-5-4-3-|
D---------------0-0-/5---0-/5---6-5-4-3-|

Chorus
E----------------------------------------------------------------|x2
B----------------------------------------------------------------|
G----------------------------------------------------------------|
D----------------------------------------------------------------|
A------------3------3------3------5-------------3------3-6-5-4-3-|
D-12\-0-0-/5---0-/5---0-/5---0-/5----12\-0-0-/5---0-/5---6-5-4-3-|

E---------------------------------------------|x1
B---------------------------------------------|
G-5-5-5-5-5-5-5-3/5-5-5-5-5-------------------|
D-5-5-5-5-5-5-5-3/5-5-5-5-5-3-5-5-5-5-5-5-5-3-|
A-3-3-3-3-3-3-3-1/3-3-3-3-3-3-5-5-5-5-5-5-5-3-|
D---------------------------3-5-5-5-5-5-5-5-3-|

Bridge
E------------------------------------------------------------|x4
B------------------------------------------------------------|
G------------------------------------------------------------|
D-----------------3-----5-5----------------------3-----5-5---|
A-----5-5-3-3-5-----3-3-----3------3-5-5-3-3-5-----3-3-----3-|
D-0-0-----------0----------------0-------------0-------------|

Guitar Riff Before Final Chorus
e---------------------------------------|x2
B---------------------------------------|
G---------------------------------------|
D---------------------------------------|
A---------------------------------------|
D-15-12-10p0-12p0-12p10-0-0-3p0-3/5-3p0-|

Chorus
E----------------------------------------------------------------|x4
B----------------------------------------------------------------|
G----------------------------------------------------------------|
D----------------------------------------------------------------|
A------------3------3------3------5-------------3------3-6-5-4-3-|
D-12\-0-0-/5---0-/5---0-/5---0-/5----12\-0-0-/5---0-/5---6-5-4-3-|

E----------------------------------------------------|x1
B----------------------------------------------------|
G-5-5-5-5-5-5-5-3/5-5-5-5-5--------------------------|
D-5-5-5-5-5-5-5-3/5-5-5-5-5-3-5-5-5-5-5-5-5-3-----3\-|
A-3-3-3-3-3-3-3-1/3-3-3-3-3-3-5-5-5-5-5-5-5-3-----3\-|
D---------------------------3-5-5-5-5-5-5-5-3-----3\-|

That's what I got, please rate/comment tab if you have time. Have fun.

            
            
Suggest correction
Creating personal tab
Creating personal tab
You can edit any tab online and save it as your Personal.

You can edit, replace or remove any tab part or add personal notes – all changes will be seen only by you.

Personal tabs can be accessed anytime from any device, even offline.
Learn more »
Give kudos to tab author, rate the tab!
1 2 3 4 5
comments
print report bad tab
2 comments total.
0 reply
Pete #23# 10 Jul 23, 2009 12:35 AM

nice tab man!!!! good stuff

0 reply
spedracer12345 58 Aug 18, 2009 10:39 AM

during the verse, i just do a long ass pick scrape on the D and G strings the whole way down. And during the pre chorus i just play
-x-x-x-x-x-x-x-x-x-x-x-x-x-x-x-x-x-x-x
-x-x-x-x-x-x-x-x-x-x-x-x-x-x-x-x-x-x-x
-x-x-x-x-x-x-x-x-x-x-x-x-x-x-x-x-x-x-x
-x-x-x-x-x-x-x-x-x-x-x-x-x-x-x-x-x-x-x on every string, ya know wat im trying to say, i just alternate pick muted notes. everything else sounds pretty good!

guest
You may want to rate the tab now too:
select rating
Wanna post a correction for this tab? Suggest correction