Oops, an error
Loading. Please wait.

This Afternoon tab

version 2
version 2

Whole song

Interactive

6,030 views 1 this week
3 commentsread comments
1 2 3 4 5
2 more votes to show rating
add to favorites
×
Save as Personal and add changes to this tab that will be seen only by you. Learn more ›
×
You can save this tab as Personal to edit and correct it or add notes. All changes will be seen only by you. Learn more »
launch autoscroll
font size
0
reset
how to read this tab
guitar tuner
backing track
0:00
0:00
edit
Autoscroll
slow
fast
+/-
esc
set tempo
stop
Author
Difficulty
-----------------------------------------------------------------------------
                             This Afternoon - Nickelback
-----------------------------------------------------------------------------
Tabbed by: jpcguitar
Email:theawsomelb@yahoo.com

Tuning: e standard

intro
e|-33333--22222-------------------          ----------------------------|
B|-22222---------33333------------          ----------------------------|
G|-00000--00000--22222--000000----          ----------------0-----------|
D|-00000--22222--00000--222222----          --2/4--7---2-0----4~--------|
A|-33333--33333--33333--333333----          ----------------------------|
E|-33333--33333--33333--222222----          ----------------------------|

verse
e|-33333--22222-------------------|
B|-22222---------33333------------|
G|-00000--00000--22222--000000----|     x6
D|-00000--22222--00000--222222----|
A|-33333--33333--33333--333333----|
E|-33333--33333--33333--222222----|

Pre-chorus
e|-----------33-------------33--------------|
B|-33--------22--------33---22--------------|
G|-22---00---00--------22---00---0000000----|
D|-00---22---00---55---00---00---2222222----|
A|-33---33---33---55---33---33---3333333----|
E|-33---22---33--------33---33---2222222----|

chorus
e|-----------3333---------|
B|-----------2222-3333----|
G|------0000-0000-2222----|     x2
D|-5555-2222-0000-0000----|
A|-5555-3333-3333-3333----|
E|------2222-3333-3333----|

Verse: x4

Pre-chorus: x1

Chorus: x4

Intro: x1

solo
e|-----------333-000-------|
B|-----------222-222-3333--|
G|------0000-000-000-2222--|     x2
D|-5555-2222-000-000-0000--|
A|-5555-3333-333-333-3333--|
E|------2222-333-333-3333--|


e|-33--------333-000---------|
B|-22-333----222-222-3333----|
G|-00-222----000-000-2222----|
D|-00-000----000-000-0000----|
A|-33-333----333-333-3333----|
E|-33-333----333-333-3333----|


verse: x1

pre-Chorus: x1

chorus: x5

verse: x5.

That’s the whole song in order, I might have messed up a couple times on the amount of 
to play certain parts.


************************************

| /   slide up
| \   slide down
| h   hammer-on
| p   pull-off
| ~   vibrato
| +   harmonic
| x   Mute note
| b   Bend
| pb  Pre-bend
| br  Bend release
| pbr Pre-bend release
| brb Bend release bend

************************************

            
            
Suggest correction
Creating personal tab
Creating personal tab
You can edit any tab online and save it as your Personal.

You can edit, replace or remove any tab part or add personal notes – all changes will be seen only by you.

Personal tabs can be accessed anytime from any device, even offline.
Learn more »
Give kudos to tab author, rate the tab!
1 2 3 4 5
comments
print report bad tab
3 comments total.
0 reply
jpcguitar 37 Nov 01, 2010 04:16 PM

sorry about this tab. i accidentally did this upside down, its supposed to be like e3
b3
g0
d0
a2
e3 instead of flipped upside down. i will fix this at one point

0 reply
icyscuz 10 Feb 24, 2011 09:43 AM

e-------------------------------
B-------3-----------------------
G--2/4-----4\2--0-----4~~~~-----
D------------------0------------
A-------------------------------
E-------------------------------

Correct way ^, easier.

0 reply
Blunk182 10 Apr 29, 2011 03:30 AM

Don't think this can be classed as a novice song, at least I found it too hard. Mabey it's just me (only been playing 4 months)

guest
You may want to rate the tab now too:
select rating
Wanna post a correction for this tab? Suggest correction