Oops, an error
Loading. Please wait.

Throw Yourself Away tab

version 3
version 3

Whole song

Interactive

7,141 views 1 this week
no commentswrite comment
1 2 3 4 5
x 7
add to favorites
×
Save as Personal and add changes to this tab that will be seen only by you. Learn more ›
×
You can save this tab as Personal to edit and correct it or add notes. All changes will be seen only by you. Learn more »
launch autoscroll
font size
0
reset
how to read this tab
guitar tuner
edit
Autoscroll
slow
fast
+/-
esc
set tempo
stop
Author
-------------------------------------------------------------------------------
Throw Yourself Away - Nickelback
-------------------------------------------------------------------------------

Tabbed by: A.Wheeler

This song is actually tuned to Drop C, but you can play it in standard tuning.  Enjoy!

Tuning: Standard

Into/Verse
e|------------------------------------------------|
B|------------------------------------------------|
G|--5----x-x-x---x-x-x---x-5----------------------|
D|--5----x-x-x---x-x-x---x-5----------------------|
A|--3----x-x-x---x-x-x---x-3----x------6—8~-------|
E|--3----x-x-x---x-x-x---x-3----x---/8------------|


Pre-Chorus
e|------------------------------------------------------------|
B|------------------------------------------------------------|
G|--5----x-x-x---x-x-x---x-5----8-/10-10-10---8-/10-10-10-----|
D|--5----x-x-x---x-x-x---x-5----8-/10-10-10---8-/10-10-10-----|
A|--3----x-x-x---x-x-x---x-3----6-/8--8--8----6-/8--8--8------|
E|--3----x-x-x---x-x-x---x-3----6-/8--8--8----6-/8--8--8------|


Chorus
e|-----------------------------------------------------------------------------|
B|-----------------------------------------------------------------------------|
G|--------8-----8-/10-10--x-x----8-/10-10--x-x----8-/10-10-10-10-10-8/10-------|
D|--6-----8-----8-/10-10--x-x----8-/10-10--x-x----8-/10-10-10-10-10-8/10-------|
A|--6-----6-----6-/8--8---x-x----6-/8--8---x-x----6-/8--8--8--8--8--6/8--------|
E|--4-----6-----6-/8--8---x-x----6-/8--8---x-x----6-/8--8--8--8—-8--6/8--------|

e|-------------------------------------------------------------------------|
B|-------------------------------------------------------------------------|
G|--5----------5--------------5--x-x-x-x-x-x-x-x-x------5----------5-------|
D|--5----------5----------5---5--x-x-x-x-x-x-x-x-x--8---5----------5-------|
A|--3------6---3-------6--3---3--x-x-x-x-x-x-x-x-x--8---3------6---3-------|
E|--3---/8-----3---/8---------3--x-x-x-x-x-x-x-x-x--6---3---/8-----3-------|

e|-------------------------------|
B|-------------------------------|
G|--5--x-x-x-x-x-x-x-x-x---------|
D|--5--x-x-x-x-x-x-x-x-x--8------|
A|--3--x-x-x-x-x-x-x-x-x--8------|
E|--3--x-x-x-x-x-x-x-x-x--6------|

e|-----------------------------------------------------------------------------|
B|-----------------------------------------------------------------------------|
G|--------8-----8-/10-10--x-x----8-/10-10--x-x----8-/10-10-10-10-10-8/10-------|
D|--6-----8-----8-/10-10--x-x----8-/10-10--x-x----8-/10-10-10-10-10-8/10-------|
A|--6-----6-----6-/8--8---x-x----6-/8--8---x-x----6-/8--8--8--8--8--6/8--------|
E|--4-----6-----6-/8--8---x-x----6-/8--8---x-x----6-/8--8--8--8—-8--6/8--------|


Last Chorus
e|-----------------------------------------------------------------------------|
B|-----------------------------------------------------------------------------|
G|--------8-----8-/10-10-10-10-10-10-10-10-10-10----8/10-10-10---8/10-10-10----|
D|--6-----8-----8-/10-10-10-10-10-10-10-10-10-10----8/10-10-10---8/10-10-10----|
A|--6-----6-----6-/8--8--8--8--8--8--8--8--8--8-----6/8--8--8----6/8—-8--8-----|
E|--4-----6-----6-/8--8--8--8--8--8--8—-8--8--8-----6/8--8--8----6/8—-8--8-----|

e|-----------------------------------------------------------------------------|
B|-----------------------------------------------------------------------------|
G|--------8-----8-/10-10--x-x----8-/10-10--x-x----8-/10-10-10-10-10-8/10-------|
D|--6-----8-----8-/10-10--x-x----8-/10-10--x-x----8-/10-10-10-10-10-8/10-------|
A|--6-----6-----6-/8--8---x-x----6-/8--8---x-x----6-/8--8--8--8--8--6/8--------|
E|--4-----6-----6-/8--8---x-x----6-/8--8---x-x----6-/8--8--8--8—-8--6/8--------|

e|-------------------------------------------------------------------------|
B|-------------------------------------------------------------------------|
G|--5----------5--------------5--x-x-x-x-x-x-x-x-x------5----------5-------|
D|--5----------5----------5---5--x-x-x-x-x-x-x-x-x--8---5----------5-------|
A|--3------6---3-------6--3---3--x-x-x-x-x-x-x-x-x--8---3------6---3-------|
E|--3---/8-----3---/8---------3--x-x-x-x-x-x-x-x-x--6---3---/8-----3-------|

e|-------------------------------|
B|-------------------------------|
G|--5--x-x-x-x-x-x-x-x-x---------|
D|--5--x-x-x-x-x-x-x-x-x--8------|
A|--3--x-x-x-x-x-x-x-x-x--8------|
E|--3--x-x-x-x-x-x-x-x-x--6------|

e|-------------------------------------------------------------------------|
B|-------------------------------------------------------------------------|
G|--5----------5--------------5--x-x-x-x-x-x-x-x-x------5----------5-------|
D|--5----------5----------5---5--x-x-x-x-x-x-x-x-x--8---5----------5-------|
A|--3------6---3-------6--3---3--x-x-x-x-x-x-x-x-x--8---3------6---3-------|
E|--3---/8-----3---/8---------3--x-x-x-x-x-x-x-x-x--6---3---/8-----3-------|

e|-------------------------------|
B|-------------------------------|
G|--5--x-x-x-x-x-x-x-x-x---------|
D|--5--x-x-x-x-x-x-x-x-x--8------|
A|--3--x-x-x-x-x-x-x-x-x--8------|
E|--3--x-x-x-x-x-x-x-x-x--6------|

e|-----------------------------------------------------------------------------|
B|-----------------------------------------------------------------------------|
G|-------8-----8-/10-10-10-10-10-10-10--8/10-10-10-10--8/10-10-10-10-10---8/10-|
D|--6----8-----8-/10-10-10-10-10-10-10--8/10-10-10-10--8/10-10-10-10-10---8/10-|
A|--6----6-----6-/8--8--8--8--8--8--8---6/8--8--8--8---6/-8—-8--8--8--8---6/-8-|
E|--4----6-----6-/8--8--8--8--8--8--8—--6/8--8--8--8---6/-8—-8--8--8—-8---6/-8-|


Solo
e|-----------------------------------------------------------------------------------|
B|-----------------------------------------------------------------------------------|
G|---------------------------------------0-3-0-0-0—-3/5\—--7b-5--7b-5—-8b10----------|
D|---------------------------<3b>-1-1-3----------------------------------------------|
A|-\\\--x-3--x-x-x-x-1-3-x-x---------------------------------------------------------|
E|-\\\-------------------------------------------------------------------------------|

Part of the solo has the low C note in it, so I replaced that note with a muted note.


Verse x4
Pre-Chrous
Chorus
Verse x4
Pre-Chorus
Chorus
Verse x2/Solo
Interlude
Verse x1
Pre-Chorus
Last Chorus


| /   slide up
| \   slide down
| h   hammer-on
| p   pull-off
| ~   vibrato
| <>    harmonic
| x   Mute note

            
            
Suggest correction
Creating personal tab
Creating personal tab
You can edit any tab online and save it as your Personal.

You can edit, replace or remove any tab part or add personal notes – all changes will be seen only by you.

Personal tabs can be accessed anytime from any device, even offline.
Learn more »
comments
print report bad tab
guest
You may want to rate the tab now too:
select rating
Wanna post a correction for this tab? Suggest correction