Oops, an error
Loading. Please wait.

Am I Wrong tab

version 5
version 5

Whole song

Video

82 views 3 this week
no commentswrite comment
1 2 3 4 5
1 last vote to show rating
add to favorites
×
Save as Personal and add changes to this tab that will be seen only by you. Learn more ›
×
You can save this tab as Personal to edit and correct it or add notes. All changes will be seen only by you. Learn more »
launch autoscroll
font size
0
reset
how to read this tab
guitar tuner
edit
Autoscroll
slow
fast
+/-
esc
set tempo
stop
Author
Difficulty
About this tab version
This is a fully tabbed version of the song, including a different pattern used in the chorus, with notes on how to play the patterns. Was this info helpful? Yes No
There are basically two patterns used in this song, with slight variations you use to add some of the high 
notes in the music. I'll describe the patterns first, then put the tab of the entire song.

Pattern 1:
(First half of the intro, verses, and bridge, all of chorus 3, and half of chorus 4)

   Cm      Ab          Fm     Bb          Cm      Ab          Ab    Bb
e|-------------------|------------------|-------------------|-----------------|
B|-------------------|----------------6-|-------------------|-4-------------6-|
G|-------------5-----|-----10\------7---|-------------5-----|-----5/7-----7---|
D|------10\6---6-----|---10-------8-----|------10\6---6-----|-----6-----8-----|
A|---10------6-------|-8--------8-------|---10------6-------|---6-----8-------|
E|-8-------4---------|--------6---------|-8-------4---------|-4-----6---------|
   * ^  *  ^ * ^ * ^   * ^ *  ^ * ^ * ^   * ^  *  ^ * ^ * ^   * ^ * ^ * ^ * ^

The slide in the first and third measures (10\6) is basically shifting the chord position from the 8th fret 
for the Cm to the 4th fret for the Ab. The slide in the second measure from (10\) is super quick and can 
easily be left out, but it is there if you listen for it. The slide in the 4th measure (5/7) is again shifting
the chord position from the 4th fret to the 6th fret.

Pattern 1A:
(Second half of the intro, verses, and bridge; second half of chorus 4)

   Cm      Ab          Fm     Bb          Cm      Ab          Ab    Bb
e|-8-----------------|-8----------------|-8-----------------|-----------------|
B|-----------------8-|-----11---------6-|-------------------|-4-------------6-|
G|-------------5-----|-----10\------7---|-------------5-----|-----5/7-----7---|
D|------10\6---6-----|---10-------8-----|------10\6---6-----|-----6-----8-----|
A|---10------6-------|-8--------8-------|---10------6-------|---6-----8-------|
E|-8-------4---------|--------6---------|-8-------4---------|-4-----6---------|
   * ^  *  ^ * ^ * ^   * ^ *  ^ * ^ * ^   * ^  *  ^ * ^ * ^   * ^ * ^ * ^ * ^

The only difference for this is the addition of a higher melodic line on top of the previous pattern. 
That line is:

   Cm      Ab          Fm     Bb          Cm      Ab          Ab    Bb
e|-8-----------------|-8----------------|-8-----------------|-----------------|
B|-----------------8-|-----11-----------|-------------------|-----------------|
G|-------------------|------------------|-------------------|-----------------|
D|-------------------|------------------|-------------------|-----------------|
A|-------------------|------------------|-------------------|-----------------|
E|-------------------|------------------|-------------------|-----------------|
   * ^  *  ^ * ^ * ^   * ^ *  ^ * ^ * ^   * ^  *  ^ * ^ * ^   * ^ * ^ * ^ * ^

In the music, there is more that happens, but this is what fits conveniently with the 
Main pattern.

Pattern 2:
(Used in the first half of Chorus 1 and Chorus 2)

   Cm      Ab         Fm    Bb          Cm      Ab         Ab    Bb
e|------------------|-----------------|------------------|-----------------|
B|------------------|-----1---------6-|------------------|---4-----------6-|
G|----8--------5----|---1---------7---|----8--------5----|-----5/7-----7---|
D|------10\6---6----|-------8---8-----|------10\6---6----|-----6-----8-----|
A|-10------6--------|-3-----8---------|-10------6--------|-6-----8---------|
E|-8-------4--------|-1-----6---------|-8-------4--------|-4-----6---------|
   *  ^ *  ^ * ^ * ^  * ^ * ^ * ^ * ^   *  ^ *  ^ * ^ * ^  * ^ * ^ * ^ * ^



Pattern 2A:
(Used in the second half of Chorus 1 and Chorus 2)
   Cm      Ab         Fm    Bb          Cm      Ab         Ab    Bb
e|-8----------------|-----------------|-8----------------|-----------------|
B|------------------|-----1---------6-|------------------|---4-----------6-|
G|----8--------5----|---1---------7---|----8--------5----|-----5/7-----7---|
D|------10\6---6----|-------8---8-----|------10\6---6----|-----6-----8-----|
A|-10------6--------|-3-----8---------|-10------6--------|-6-----8---------|
E|-8-------4--------|-1-----6---------|-8-------4--------|-4-----6---------|
   *  ^ *  ^ * ^ * ^  * ^ * ^ * ^ * ^   *  ^ *  ^ * ^ * ^  * ^ * ^ * ^ * ^

The difference here is the addition of two notes:

   Cm      Ab         Fm    Bb          Cm      Ab         Ab    Bb
e|-8-----------------|------------------|-8-----------------|-----------------|
B|-------------------|------------------|-------------------|-----------------|
G|-------------------|------------------|-------------------|-----------------|
D|-------------------|------------------|-------------------|-----------------|
A|-------------------|------------------|-------------------|-----------------|
E|-------------------|------------------|-------------------|-----------------|
   * ^  *  ^ * ^ * ^   * ^ *  ^ * ^ * ^   * ^  *  ^ * ^ * ^   * ^ * ^ * ^ * ^

Again, more happens in the music, but these notes give the flavor and still fit with the pattern.

~~~~~~~~~~~~~~~~~~~~~~~~~~~~~~~~~~~~~~~~~~~~
The outline of the song is:

INTRO
Pattern 1 
Pattern 1A

VERSE 1
Pattern 1 x2
Pattern 1A x2 (with a N.C. break right before the chorus)

CHORUS 1
Pattern 2 x2
Pattern 2A x2

VERSE 2
Pattern 1 x2
Pattern 1A x2 

CHORUS 2
Pattern 2 x2
Pattern 2A x2

BRIDGE
Pattern 1 x2
Pattern 1A x2 

CHORUS 3
Pattern 1 x4

CHORUS 4
Pattern 1 x2
Pattern 1A x2 

~~~~~~~~~~~~~~~~~~~~~~~~~~~~~~~~~~~~~~~~~~~~
Here is the entire song tabbed out:

INTRO
   Cm      Ab          Fm     Bb          Cm      Ab          Ab    Bb
e|-------------------|------------------|-------------------|-----------------|
B|-------------------|----------------6-|-------------------|-4-------------6-|
G|-------------5-----|-----10\------7---|-------------5-----|-----5/7-----7---|
D|------10\6---6-----|---10-------8-----|------10\6---6-----|-----6-----8-----|
A|---10------6-------|-8--------8-------|---10------6-------|---6-----8-------|
E|-8-------4---------|--------6---------|-8-------4---------|-4-----6---------|
   * ^  *  ^ * ^ * ^   * ^ *  ^ * ^ * ^   * ^  *  ^ * ^ * ^   * ^ * ^ * ^ * ^

   Cm      Ab          Fm     Bb          Cm      Ab          Ab    Bb
e|-8-----------------|-8----------------|-8-----------------|-----------------|
B|-----------------8-|-----11---------6-|-------------------|-4-------------6-|
G|-------------5-----|-----10\------7---|-------------5-----|-----5/7-----7---|
D|------10\6---6-----|---10-------8-----|------10\6---6-----|-----6-----8-----|
A|---10------6-------|-8--------8-------|---10------6-------|---6-----8-------|
E|-8-------4---------|--------6---------|-8-------4---------|-4-----6---------|
   * ^  *  ^ * ^ * ^   * ^ *  ^ * ^ * ^   * ^  *  ^ * ^ * ^   * ^ * ^ * ^ * ^

VERSE 1
   Cm      Ab          Fm     Bb          Cm      Ab          Ab    Bb
e|-------------------|------------------|-------------------|-----------------|
B|-------------------|----------------6-|-------------------|-4-------------6-|
G|-------------5-----|-----10\------7---|-------------5-----|-----5/7-----7---|
D|------10\6---6-----|---10-------8-----|------10\6---6-----|-----6-----8-----|
A|---10------6-------|-8--------8-------|---10------6-------|---6-----8-------|
E|-8-------4---------|--------6---------|-8-------4---------|-4-----6---------|
   * ^  *  ^ * ^ * ^   * ^ *  ^ * ^ * ^   * ^  *  ^ * ^ * ^   * ^ * ^ * ^ * ^

   Cm      Ab          Fm     Bb          Cm      Ab          Ab    Bb
e|-------------------|------------------|-------------------|-----------------|
B|-------------------|----------------6-|-------------------|-4-------------6-|
G|-------------5-----|-----10\------7---|-------------5-----|-----5/7-----7---|
D|------10\6---6-----|---10-------8-----|------10\6---6-----|-----6-----8-----|
A|---10------6-------|-8--------8-------|---10------6-------|---6-----8-------|
E|-8-------4---------|--------6---------|-8-------4---------|-4-----6---------|
   * ^  *  ^ * ^ * ^   * ^ *  ^ * ^ * ^   * ^  *  ^ * ^ * ^   * ^ * ^ * ^ * ^

   Cm      Ab          Fm     Bb          Cm      Ab          Ab    Bb
e|-8-----------------|-8----------------|-8-----------------|-----------------|
B|-----------------8-|-----11---------6-|-------------------|-4-------------6-|
G|-------------5-----|-----10\------7---|-------------5-----|-----5/7-----7---|
D|------10\6---6-----|---10-------8-----|------10\6---6-----|-----6-----8-----|
A|---10------6-------|-8--------8-------|---10------6-------|---6-----8-------|
E|-8-------4---------|--------6---------|-8-------4---------|-4-----6---------|
   * ^  *  ^ * ^ * ^   * ^ *  ^ * ^ * ^   * ^  *  ^ * ^ * ^   * ^ * ^ * ^ * ^

   Cm      Ab          Fm     Bb          Cm      Ab          Ab     N.C.
e|-8-----------------|-8----------------|-8-----------------|-----------------|
B|-----------------8-|-----11---------6-|-------------------|-4---------------|
G|-------------5-----|-----10\------7---|-------------5-----|-----5/7---------|
D|------10\6---6-----|---10-------8-----|------10\6---6-----|-----6-----------|
A|---10------6-------|-8--------8-------|---10------6-------|---6-------------|
E|-8-------4---------|--------6---------|-8-------4---------|-4---------------|
   * ^  *  ^ * ^ * ^   * ^ *  ^ * ^ * ^   * ^  *  ^ * ^ * ^   * ^ * ^ * ^ * ^

CHORUS 1
   Cm      Ab         Fm    Bb          Cm      Ab         Ab    Bb
e|------------------|-----------------|------------------|-----------------|
B|------------------|-----1---------6-|------------------|---4-----------6-|
G|----8--------5----|---1---------7---|----8--------5----|-----5/7-----7---|
D|------10\6---6----|-------8---8-----|------10\6---6----|-----6-----8-----|
A|-10------6--------|-3-----8---------|-10------6--------|-6-----8---------|
E|-8-------4--------|-1-----6---------|-8-------4--------|-4-----6---------|
   *  ^ *  ^ * ^ * ^  * ^ * ^ * ^ * ^   *  ^ *  ^ * ^ * ^  * ^ * ^ * ^ * ^

   Cm      Ab         Fm    Bb          Cm      Ab         Ab    Bb
e|------------------|-----------------|------------------|-----------------|
B|------------------|-----1---------6-|------------------|---4-----------6-|
G|----8--------5----|---1---------7---|----8--------5----|-----5/7-----7---|
D|------10\6---6----|-------8---8-----|------10\6---6----|-----6-----8-----|
A|-10------6--------|-3-----8---------|-10------6--------|-6-----8---------|
E|-8-------4--------|-1-----6---------|-8-------4--------|-4-----6---------|
   *  ^ *  ^ * ^ * ^  * ^ * ^ * ^ * ^   *  ^ *  ^ * ^ * ^  * ^ * ^ * ^ * ^

   Cm      Ab         Fm    Bb          Cm      Ab         Ab    Bb
e|-8----------------|-----------------|-8----------------|-----------------|
B|------------------|-----1---------6-|------------------|---4-----------6-|
G|----8--------5----|---1---------7---|----8--------5----|-----5/7-----7---|
D|------10\6---6----|-------8---8-----|------10\6---6----|-----6-----8-----|
A|-10------6--------|-3-----8---------|-10------6--------|-6-----8---------|
E|-8-------4--------|-1-----6---------|-8-------4--------|-4-----6---------|
   *  ^ *  ^ * ^ * ^  * ^ * ^ * ^ * ^   *  ^ *  ^ * ^ * ^  * ^ * ^ * ^ * ^

   Cm      Ab         Fm    Bb          Cm      Ab         Ab    Bb
e|-8----------------|-----------------|-8----------------|-----------------|
B|------------------|-----1---------6-|------------------|---4-----------6-|
G|----8--------5----|---1---------7---|----8--------5----|-----5/7-----7---|
D|------10\6---6----|-------8---8-----|------10\6---6----|-----6-----8-----|
A|-10------6--------|-3-----8---------|-10------6--------|-6-----8---------|
E|-8-------4--------|-1-----6---------|-8-------4--------|-4-----6---------|
   *  ^ *  ^ * ^ * ^  * ^ * ^ * ^ * ^   *  ^ *  ^ * ^ * ^  * ^ * ^ * ^ * ^

VERSE 2
   Cm      Ab          Fm     Bb          Cm      Ab          Ab    Bb
e|-------------------|------------------|-------------------|-----------------|
B|-------------------|----------------6-|-------------------|-4-------------6-|
G|-------------5-----|-----10\------7---|-------------5-----|-----5/7-----7---|
D|------10\6---6-----|---10-------8-----|------10\6---6-----|-----6-----8-----|
A|---10------6-------|-8--------8-------|---10------6-------|---6-----8-------|
E|-8-------4---------|--------6---------|-8-------4---------|-4-----6---------|
   * ^  *  ^ * ^ * ^   * ^ *  ^ * ^ * ^   * ^  *  ^ * ^ * ^   * ^ * ^ * ^ * ^

   Cm      Ab          Fm     Bb          Cm      Ab          Ab    Bb
e|-------------------|------------------|-------------------|-----------------|
B|-------------------|----------------6-|-------------------|-4-------------6-|
G|-------------5-----|-----10\------7---|-------------5-----|-----5/7-----7---|
D|------10\6---6-----|---10-------8-----|------10\6---6-----|-----6-----8-----|
A|---10------6-------|-8--------8-------|---10------6-------|---6-----8-------|
E|-8-------4---------|--------6---------|-8-------4---------|-4-----6---------|
   * ^  *  ^ * ^ * ^   * ^ *  ^ * ^ * ^   * ^  *  ^ * ^ * ^   * ^ * ^ * ^ * ^

   Cm      Ab          Fm     Bb          Cm      Ab          Ab    Bb
e|-8-----------------|-8----------------|-8-----------------|-----------------|
B|-----------------8-|-----11---------6-|-------------------|-4-------------6-|
G|-------------5-----|-----10\------7---|-------------5-----|-----5/7-----7---|
D|------10\6---6-----|---10-------8-----|------10\6---6-----|-----6-----8-----|
A|---10------6-------|-8--------8-------|---10------6-------|---6-----8-------|
E|-8-------4---------|--------6---------|-8-------4---------|-4-----6---------|
   * ^  *  ^ * ^ * ^   * ^ *  ^ * ^ * ^   * ^  *  ^ * ^ * ^   * ^ * ^ * ^ * ^

   Cm      Ab          Fm     Bb          Cm      Ab          Ab    Bb
e|-8-----------------|-8----------------|-8-----------------|-----------------|
B|-----------------8-|-----11---------6-|-------------------|-4---------------|
G|-------------5-----|-----10\------7---|-------------5-----|-----5/7---------|
D|------10\6---6-----|---10-------8-----|------10\6---6-----|-----6-----------|
A|---10------6-------|-8--------8-------|---10------6-------|---6-------------|
E|-8-------4---------|--------6---------|-8-------4---------|-4---------------|
   * ^  *  ^ * ^ * ^   * ^ *  ^ * ^ * ^   * ^  *  ^ * ^ * ^   * ^ * ^ * ^ * ^

CHORUS 2
   Cm      Ab         Fm    Bb          Cm      Ab         Ab    Bb
e|------------------|-----------------|------------------|-----------------|
B|------------------|-----1---------6-|------------------|---4-----------6-|
G|----8--------5----|---1---------7---|----8--------5----|-----5/7-----7---|
D|------10\6---6----|-------8---8-----|------10\6---6----|-----6-----8-----|
A|-10------6--------|-3-----8---------|-10------6--------|-6-----8---------|
E|-8-------4--------|-1-----6---------|-8-------4--------|-4-----6---------|
   *  ^ *  ^ * ^ * ^  * ^ * ^ * ^ * ^   *  ^ *  ^ * ^ * ^  * ^ * ^ * ^ * ^

   Cm      Ab         Fm    Bb          Cm      Ab         Ab    Bb
e|------------------|-----------------|------------------|-----------------|
B|------------------|-----1---------6-|------------------|---4-----------6-|
G|----8--------5----|---1---------7---|----8--------5----|-----5/7-----7---|
D|------10\6---6----|-------8---8-----|------10\6---6----|-----6-----8-----|
A|-10------6--------|-3-----8---------|-10------6--------|-6-----8---------|
E|-8-------4--------|-1-----6---------|-8-------4--------|-4-----6---------|
   *  ^ *  ^ * ^ * ^  * ^ * ^ * ^ * ^   *  ^ *  ^ * ^ * ^  * ^ * ^ * ^ * ^

   Cm      Ab         Fm    Bb          Cm      Ab         Ab    Bb
e|-8----------------|-----------------|-8----------------|-----------------|
B|------------------|-----1---------6-|------------------|---4-----------6-|
G|----8--------5----|---1---------7---|----8--------5----|-----5/7-----7---|
D|------10\6---6----|-------8---8-----|------10\6---6----|-----6-----8-----|
A|-10------6--------|-3-----8---------|-10------6--------|-6-----8---------|
E|-8-------4--------|-1-----6---------|-8-------4--------|-4-----6---------|
   *  ^ *  ^ * ^ * ^  * ^ * ^ * ^ * ^   *  ^ *  ^ * ^ * ^  * ^ * ^ * ^ * ^

   Cm      Ab         Fm    Bb          Cm      Ab         Ab    Bb
e|-8----------------|-----------------|-8----------------|-----------------|
B|------------------|-----1---------6-|------------------|---4-----------6-|
G|----8--------5----|---1---------7---|----8--------5----|-----5/7-----7---|
D|------10\6---6----|-------8---8-----|------10\6---6----|-----6-----8-----|
A|-10------6--------|-3-----8---------|-10------6--------|-6-----8---------|
E|-8-------4--------|-1-----6---------|-8-------4--------|-4-----6---------|
   *  ^ *  ^ * ^ * ^  * ^ * ^ * ^ * ^   *  ^ *  ^ * ^ * ^  * ^ * ^ * ^ * ^

BRIDGE
   Cm      Ab          Fm     Bb          Cm      Ab          Ab    Bb
e|-------------------|------------------|-------------------|-----------------|
B|-------------------|----------------6-|-------------------|-4-------------6-|
G|-------------5-----|-----10\------7---|-------------5-----|-----5/7-----7---|
D|------10\6---6-----|---10-------8-----|------10\6---6-----|-----6-----8-----|
A|---10------6-------|-8--------8-------|---10------6-------|---6-----8-------|
E|-8-------4---------|--------6---------|-8-------4---------|-4-----6---------|
   * ^  *  ^ * ^ * ^   * ^ *  ^ * ^ * ^   * ^  *  ^ * ^ * ^   * ^ * ^ * ^ * ^

   Cm      Ab          Fm     Bb          Cm      Ab          Ab    Bb
e|-------------------|------------------|-------------------|-----------------|
B|-------------------|----------------6-|-------------------|-4-------------6-|
G|-------------5-----|-----10\------7---|-------------5-----|-----5/7-----7---|
D|------10\6---6-----|---10-------8-----|------10\6---6-----|-----6-----8-----|
A|---10------6-------|-8--------8-------|---10------6-------|---6-----8-------|
E|-8-------4---------|--------6---------|-8-------4---------|-4-----6---------|
   * ^  *  ^ * ^ * ^   * ^ *  ^ * ^ * ^   * ^  *  ^ * ^ * ^   * ^ * ^ * ^ * ^

   Cm      Ab          Fm     Bb          Cm      Ab          Ab    Bb
e|-8-----------------|-8----------------|-8-----------------|-----------------|
B|-----------------8-|-----11---------6-|-------------------|-4-------------6-|
G|-------------5-----|-----10\------7---|-------------5-----|-----5/7-----7---|
D|------10\6---6-----|---10-------8-----|------10\6---6-----|-----6-----8-----|
A|---10------6-------|-8--------8-------|---10------6-------|---6-----8-------|
E|-8-------4---------|--------6---------|-8-------4---------|-4-----6---------|
   * ^  *  ^ * ^ * ^   * ^ *  ^ * ^ * ^   * ^  *  ^ * ^ * ^   * ^ * ^ * ^ * ^

   Cm      Ab          Fm     Bb          Cm      Ab          Ab    Bb
e|-8-----------------|-8----------------|-8-----------------|-----------------|
B|-----------------8-|-----11---------6-|-------------------|-4-------------6-|
G|-------------5-----|-----10\------7---|-------------5-----|-----5/7-----7---|
D|------10\6---6-----|---10-------8-----|------10\6---6-----|-----6-----8-----|
A|---10------6-------|-8--------8-------|---10------6-------|---6-----8-------|
E|-8-------4---------|--------6---------|-8-------4---------|-4-----6---------|
   * ^  *  ^ * ^ * ^   * ^ *  ^ * ^ * ^   * ^  *  ^ * ^ * ^   * ^ * ^ * ^ * ^

CHORUS 3
   Cm      Ab          Fm     Bb          Cm      Ab          Ab    Bb
e|-------------------|------------------|-------------------|-----------------|
B|-------------------|----------------6-|-------------------|-4-------------6-|
G|-------------5-----|-----10\------7---|-------------5-----|-----5/7-----7---|
D|------10\6---6-----|---10-------8-----|------10\6---6-----|-----6-----8-----|
A|---10------6-------|-8--------8-------|---10------6-------|---6-----8-------|
E|-8-------4---------|--------6---------|-8-------4---------|-4-----6---------|
   * ^  *  ^ * ^ * ^   * ^ *  ^ * ^ * ^   * ^  *  ^ * ^ * ^   * ^ * ^ * ^ * ^

   Cm      Ab          Fm     Bb          Cm      Ab          Ab    Bb
e|-------------------|------------------|-------------------|-----------------|
B|-------------------|----------------6-|-------------------|-4-------------6-|
G|-------------5-----|-----10\------7---|-------------5-----|-----5/7-----7---|
D|------10\6---6-----|---10-------8-----|------10\6---6-----|-----6-----8-----|
A|---10------6-------|-8--------8-------|---10------6-------|---6-----8-------|
E|-8-------4---------|--------6---------|-8-------4---------|-4-----6---------|
   * ^  *  ^ * ^ * ^   * ^ *  ^ * ^ * ^   * ^  *  ^ * ^ * ^   * ^ * ^ * ^ * ^

   Cm      Ab          Fm     Bb          Cm      Ab          Ab    Bb
e|-------------------|------------------|-------------------|-----------------|
B|-------------------|----------------6-|-------------------|-4-------------6-|
G|-------------5-----|-----10\------7---|-------------5-----|-----5/7-----7---|
D|------10\6---6-----|---10-------8-----|------10\6---6-----|-----6-----8-----|
A|---10------6-------|-8--------8-------|---10------6-------|---6-----8-------|
E|-8-------4---------|--------6---------|-8-------4---------|-4-----6---------|
   * ^  *  ^ * ^ * ^   * ^ *  ^ * ^ * ^   * ^  *  ^ * ^ * ^   * ^ * ^ * ^ * ^

   Cm      Ab          Fm     Bb          Cm      Ab          Ab    Bb
e|-------------------|------------------|-------------------|-----------------|
B|-------------------|----------------6-|-------------------|-4-------------6-|
G|-------------5-----|-----10\------7---|-------------5-----|-----5/7-----7---|
D|------10\6---6-----|---10-------8-----|------10\6---6-----|-----6-----8-----|
A|---10------6-------|-8--------8-------|---10------6-------|---6-----8-------|
E|-8-------4---------|--------6---------|-8-------4---------|-4-----6---------|
   * ^  *  ^ * ^ * ^   * ^ *  ^ * ^ * ^   * ^  *  ^ * ^ * ^   * ^ * ^ * ^ * ^

CHORUS 4
   Cm      Ab          Fm     Bb          Cm      Ab          Ab    Bb
e|-------------------|------------------|-------------------|-----------------|
B|-------------------|----------------6-|-------------------|-4-------------6-|
G|-------------5-----|-----10\------7---|-------------5-----|-----5/7-----7---|
D|------10\6---6-----|---10-------8-----|------10\6---6-----|-----6-----8-----|
A|---10------6-------|-8--------8-------|---10------6-------|---6-----8-------|
E|-8-------4---------|--------6---------|-8-------4---------|-4-----6---------|
   * ^  *  ^ * ^ * ^   * ^ *  ^ * ^ * ^   * ^  *  ^ * ^ * ^   * ^ * ^ * ^ * ^

   Cm      Ab          Fm     Bb          Cm      Ab          Ab    Bb
e|-------------------|------------------|-------------------|-----------------|
B|-------------------|----------------6-|-------------------|-4-------------6-|
G|-------------5-----|-----10\------7---|-------------5-----|-----5/7-----7---|
D|------10\6---6-----|---10-------8-----|------10\6---6-----|-----6-----8-----|
A|---10------6-------|-8--------8-------|---10------6-------|---6-----8-------|
E|-8-------4---------|--------6---------|-8-------4---------|-4-----6---------|
   * ^  *  ^ * ^ * ^   * ^ *  ^ * ^ * ^   * ^  *  ^ * ^ * ^   * ^ * ^ * ^ * ^

   Cm      Ab          Fm     Bb          Cm      Ab          Ab    Bb
e|-8-----------------|-8----------------|-8-----------------|-----------------|
B|-----------------8-|-----11---------6-|-------------------|-4-------------6-|
G|-------------5-----|-----10\------7---|-------------5-----|-----5/7-----7---|
D|------10\6---6-----|---10-------8-----|------10\6---6-----|-----6-----8-----|
A|---10------6-------|-8--------8-------|---10------6-------|---6-----8-------|
E|-8-------4---------|--------6---------|-8-------4---------|-4-----6---------|
   * ^  *  ^ * ^ * ^   * ^ *  ^ * ^ * ^   * ^  *  ^ * ^ * ^   * ^ * ^ * ^ * ^

   Cm      Ab          Fm     Bb          Cm      Ab          Ab    Bb         N.C.
e|-8-----------------|-8----------------|-8-----------------|-----------------|-8-||
B|-----------------8-|-----11---------6-|-------------------|-4-------------6-|---||
G|-------------5-----|-----10\------7---|-------------5-----|-----5/7-----7---|---||
D|------10\6---6-----|---10-------8-----|------10\6---6-----|-----6-----8-----|---||
A|---10------6-------|-8--------8-------|---10------6-------|---6-----8-------|---||
E|-8-------4---------|--------6---------|-8-------4---------|-4-----6---------|---||
   * ^  *  ^ * ^ * ^   * ^ *  ^ * ^ * ^   * ^  *  ^ * ^ * ^   * ^ * ^ * ^ * ^   *

~~~~~~~~~~~~~~~~~~~~~~~~~~~~~~~~~~~~~~~~~~~~
Here are the lyrics with chords and indications of which pattern is being used:

[INTRO]
Pattern 1
Cm   Ab   Fm   Bb   Cm   Ab   Ab   Bb 
Pattern 1A
Cm   Ab   Fm   Bb   Cm   Ab   Ab   Bb 
  Ooo-oo-oo-oo        Ooo-oo-oo-oo 

[VERSE 1]
Pattern 1
       Cm Ab     Fm              Bb               Cm  Ab Ab Bb 
Am I wrong  for thinking out the box from where I  stay?
Pattern 1
       Cm Ab     Fm             Bb            Cm Ab Ab Bb
Am I wrong  for saying that I choose another way?
Pattern 1A
         Cm            Ab           Fm     Bb
I ain't trying to do what everybody else doing
           Cm     Ab                 Ab    Bb 
Just cause everybody doing what they all do
Pattern 1A
   Cm        Ab            Fm      Bb
If one thing I know, I'll fall but I'll grow
     Cm            Ab                     Ab         Bb  N.C.
I'm walking down this road of mine, this road that I call home

[Chorus] 
Pattern 2
         Cm  Ab       Fm              Bb                     Cm  Ab  Ab  Bb
So am I wrong?  For thinking that we could be something for real?
Pattern 2
          Cm  Ab     Fm             Bb                       Cm   Ab  Ab  Bb
Now am I wrong? For trying to reach the things that I can’t see?
Pattern 2A
                   Cm  Ab Fm  Bb                   Cm   Ab   Ab  Bb
That's just how I feel,         that’s just how I feel
Pattern 2A
                   Cm  Ab Fm              Bb                      Cm  Ab     Ab  Bb
That's just how I feel,   trying to reach the things that I can’t see,  see, see

Pattern 1
       Cm    Ab    Fm    Bb           Cm    Ab  Ab  Bb
Am I tripping   huh     for having a vision?   
Pattern 1
       Cm     Ab    Fm      Bb                 Cm   Ab  Ab  Bb
My prediction:      I'ma be on the top of the world   
Pattern 1A
Cm                Ab                 Fm            Bb               
   Walk your walk and don't look back   Always do what you decide   
Cm                Ab                  Ab             Bb
   Don't let them control your life, that's just how I feel, whoa
Pattern 1A
Cm                 Ab              Fm                 Bb             
   Fight for yours and don't let go   Don't let them compare you, no   
Cm               Ab                Ab             Bb
   Don't worry, you're not alone, that's just how we feel   

Pattern 2
       Cm       Ab     
Am I wrong? (Am I wrong?)     
     Fm               Bb                     Cm    Ab               Ab      Bb
For thinking that we could be something for real? (Oh yeah yeah yeah, oh-oh)
Pattern 2
           Cm       Ab     
Now am I wrong? (Am I wrong?)     
    Fm              Bb                       Cm   Ab               Ab     Bb
For trying to reach the things that I can't see? (Oh yeah yeah yeah, yeah)   
Pattern 2A
                   Cm  Ab Fm  Bb                   Cm   Ab   Ab  Bb
That's just how I feel,         that’s just how I feel
Pattern 2A
                   Cm  Ab Fm              Bb                      Cm  Ab     Ab  Bb
That's just how I feel,   trying to reach the things that I can’t see,  see, see

Pattern 1
C     Ab              Fm   Bb       Cm    Ab             Ab   Bb
  If you tell me I'm wrong,  wrong,    I don't wanna be right,  right   
Pattern 1
C     Ab              Fm   Bb       Cm    Ab                  Ab   Bb
  If you tell me I'm wrong,  wrong,    I don't wanna be right   
Pattern 1A
C        Ab              Fm   Bb       Cm    Ab             Ab   Bb
  Now if you tell me I'm wrong,  wrong,   I don't wanna be right,  right   
Pattern 1A
C     Ab              Fm   Bb       Cm   Ab                 Ab   Bb
  If you tell me I'm wrong,  wrong,   I don't wanna be right   

Pattern 1
       Cm  Ab     Fm               Bb                     Cm  Ab  Ab  Bb
Am I wrong?  For thinking that we could be something for real?
Pattern 1
          Cm  Ab     Fm             Bb                       Cm   Ab  Ab  Bb
Now am I wrong? For trying to reach the things that I can’t see?
Pattern 1
                       Cm  Ab Fm  Bb                   Cm   Ab   Ab  Bb
But that's just how I feel,         that’s just how I feel
Pattern 1
                   Cm  Ab Fm              Bb                      Cm  Ab     Ab  Bb
That's just how I feel,   trying to reach the things that I can’t see,  see, see
     
Pattern 1
       Cm       Ab     
Am I wrong? (Am I wrong?)     
     Fm               Bb                     Cm    Ab               Ab      Bb
For thinking that we could be something for real? (Oh yeah yeah yeah, oh-oh)
Pattern 1
           Cm       Ab     
Now am I wrong? (Am I wrong?)     
    Fm              Bb                       Cm   Ab               Ab     Bb
For trying to reach the things that I can't see? (Oh yeah yeah yeah, yeah)   
Pattern 1A
                   Cm  Ab Fm  Bb                   Cm   Ab   Ab  Bb
That's just how I feel,         that’s just how I feel
Pattern 1A
                   Cm  Ab Fm              Bb                      Cm  Ab     Ab  Bb  
That's just how I feel,   trying to reach the things that I can’t see,  see, see



Comments and suggetions are always welcome. Enjoy!


*********************************** 
| / Slide up 
| \ Slide down
*********************************** 

            
            
Suggest correction
Creating personal tab
Creating personal tab
You can edit any tab online and save it as your Personal.

You can edit, replace or remove any tab part or add personal notes – all changes will be seen only by you.

Personal tabs can be accessed anytime from any device, even offline.
Learn more »
Give kudos to tab author, rate the tab!
1 2 3 4 5
comments
print report bad tab
guest
You may want to rate the tab now too:
select rating
Wanna post a correction for this tab? Suggest correction