Oops, an error
Loading. Please wait.

True Love Cafe tab

394 views 18 this week
1 commentread comment
1 2 3 4 5
1 last vote to show rating
add to favorites
×
Save as Personal and add changes to this tab that will be seen only by you. Learn more ›
×
You can save this tab as Personal to edit and correct it or add notes. All changes will be seen only by you. Learn more »
launch autoscroll
font size
0
reset
how to read this tab
guitar tuner
edit
Autoscroll
slow
fast
+/-
esc
set tempo
stop
Author
Difficulty
[Verse]
e|-------------------------------------------|
B|---3---3---3---3---1---1---1---1-----------|
G|-----0---0---0---0---0---0---0---0---------| x4
D|-------------------------------------------|
A|-------------------------------------------|
E|-------------------------------------------|
You have such a beautiful face
I've been dreaming about it between my legs
Come over and crawl into my bed
Kiss me, get me wet, give me head

[Chorus]
G                                   C
Make me arch my back like ice cream sundae spoons
G                                C
Give me afterglow as bright and daunting as the moon
G                                  C
Rub my feet with yours when we sit in a restuarant booth
G                       C
Make me fall in love with you

[Verse]
e|-------------------------------------------|
B|---3---3---3---3---1---1---1---1-----------|
G|-----0---0---0---0---0---0---0---0---------| x4
D|-------------------------------------------|
A|-------------------------------------------|
E|-------------------------------------------|
Take me on a sticky sweet romantic date
Take me out to eat at the True Love Café
Ask for breakfast menus, order sunny-side up eggs
Sneak your fingers in me underneath our plates

[Chorus]
G                                   C
Make me arch my back like ice cream sundae spoons
G                                C
Give me after glow as bright and daunting as the moon
G                                  C
Rub my feet with yours when we sit in a restuarant booth
G                       C
Make me fall in love with you

            
            
Suggest correction
Creating personal tab
Creating personal tab
You can edit any tab online and save it as your Personal.

You can edit, replace or remove any tab part or add personal notes – all changes will be seen only by you.

Personal tabs can be accessed anytime from any device, even offline.
Learn more »
Give kudos to tab author, rate the tab!
1 2 3 4 5
comments
print report bad tab
1 comment total.
0 reply
WilliamOBryan11 10 Oct 20, 2017 02:38 PM

You've singlehandedly help me play my favorite song this year

guest
You may want to rate the tab now too:
select rating
Wanna post a correction for this tab? Suggest correction