Oops, an error
Loading. Please wait.

Biarlah bass

version 1
version 1

Whole song

Interactive

by Nidji
4,363 views 1 this week
no commentswrite comment
1 2 3 4 5
3 more votes to show rating
add to favorites
×
Save as Personal and add changes to this tab that will be seen only by you. Learn more ›
×
You can save this tab as Personal to edit and correct it or add notes. All changes will be seen only by you. Learn more »
launch autoscroll
font size
0
reset
guitar tuner
edit
Autoscroll
slow
fast
+/-
esc
set tempo
stop
Author
----------------------------------------------------------------------------
			     Biarlah - Nidji
----------------------------------------------------------------------------

Well, i don't know if this 80% right but it still great....
for me
Anyway this is my first tab as a new member so be nice by not giving me  any comment, capiche? 
coz' i'm still 14.
You might broke my heart, ya know?

with love, luksiieaah.

  Intro :
G|--------------------------------------------------------|
D|-----0-3-0-3-5-----0-3-0-3-5----------------------------|   2x
A|-2-2-----------2-2---------------0-3-0-3-5-----0-3-0-3-5|
E|-----------------------------2-2-----------2-2----------|
   *
G|----------------------------------------------------------------------|
D|----------------------------------------------------------------------| 2x
A|2-2-2-2--2-2-2-2--2-2-2-2--2-2-4-4------------------------------------|
E|-----------------------------------2-2-2-2--2-2-2-2--2-2-2-2--2-2-4-4-|

  **
G|------------------------------------------------------------|
D|------------------------------------------------------------|  2x
A|------------------------------------------------------------|
E|3-3-3-3-3-3-3-3-3-3-3-3-3-3-3-5-5-5-5-5-5-5-5-5-5-5-5-5-5-5-|

  Reff :
G|----------------------------------------------------------------|
D|----------------------------------------------------------------|
A|5-5-5-5--5-5--------------2-2-2-2--2-2--------------------------|
E|-------------5-5-5-5--5-5--------------2-2-2-2--2-2-3-3-3-3--3-3|
    
G|-----------------------------------------|
D|-----------------------------------------|  Reff 2 times then 
A|-----------------------------------------|  back to intro, *, **
E|--2-2-2-2--2-2-0-0-0-0--0-0-5-5-5-5--5-5-|

  Kau jauh...
G|----------------------------------------------------------------|
D|----------------------------------------------------------------|  2x
A|-------5--5--------2--2-----------------------------------------|
E|-------------5--5--------2--2---3-3-3-3-3-3-3-3-3-3-3-3-3-3-3-3-|
  
  Biarlah...
G|-------------------------------------------------------------------------|
D|-------------------------------------------------------------------------|
A|------5~--------------2~-------------------------------------------------|
E|--------------5~--------------2~------3~------2~------0~------5~---------|

  Back to reff, play reff untill end


P.S. :
Just listen to the song and you'll be fine
didn't fit ?? don't be mad
Coz' it's fit for me

            
            
Suggest correction
Creating personal tab
Creating personal tab
You can edit any tab online and save it as your Personal.

You can edit, replace or remove any tab part or add personal notes – all changes will be seen only by you.

Personal tabs can be accessed anytime from any device, even offline.
Learn more »
Give kudos to tab author, rate the tab!
1 2 3 4 5
comments
print report bad tab
guest
You may want to rate the tab now too:
select rating
Wanna post a correction for this tab? Suggest correction