Oops, an error
Loading. Please wait.

I Want To Be Buried In Your Backyard bass

version 1
version 1

Whole song

1,648 views 3 this week
no commentswrite comment
1 2 3 4 5
1 last vote to show rating
add to favorites
×
Save as Personal and add changes to this tab that will be seen only by you. Learn more ›
×
You can save this tab as Personal to edit and correct it or add notes. All changes will be seen only by you. Learn more »
launch autoscroll
font size
0
reset
guitar tuner
edit
Autoscroll
slow
fast
+/-
esc
set tempo
stop
Author
Difficulty
-------------------------------------------------------------------------
          I Want To Buried In Your Backyard - Nightmare Of You
-------------------------------------------------------------------------------

Tabbed By :
e-mail:

Tuning:standard
intro/verse
G|--6--222--2-----------------|
D|44-44---00-00222--0-----2h4-|
A|----------------22-24444----|
E|----------------------------| (5x)

ending of verse
G|--6--222--2-----------------|
D|44-44---00-00222------------|
A|----------------2222222222--|
E|----------------------------|
bridge
G|------------------------------------------6644221-----|(for this listin to the
D|0020 2222 7776744444-000000002222244444444------------|song cause there are sum
A|------------------------------------------------------|     half notes in there)
E|------------------------------------------------------|
 chorus                               ending1
G|----2*----2*---------------------  -----------------|
D|--2*----2*----2---2--------------  ---------------7-|
A|0*----0*-----4-4-4-4---420--420--  -555555h7775h75--|
E|------------4---4-----2----0-----  -----------------|
ending 2
G|-------------|
D|-------------|
A|-555555555555
E|-------------
reapeat verse (5x)
repeat bridge (6x)
repeat chorus (2x)

intrumental
G|-----------------------------------------------------------------|p|
D|-----------------------------------------------------------------|a|
A|------------------------------------------------55555p4-5p4-5420-|u|
E|555555555555555544444444444444422222222000000000-----------------|s|
                                                                   |e|
start in and ill be fixing every habit....
G|------------6644221---|
D|0*--------------------|
A|--2*44444444----------|
E|----------------------|
chorus (2x)
ending
G|----------------------------|b|----|
D|----------------------------|e|----|
A|--420-420-55555555--420-420-|a|-5*-|
E|-2---0-------------2---0----|t|----|

well thats it! its pretty easy when you get the hang of it but it require a little bit 
practice like everything else in life it should be some what correct... i hope....

| /  slide up
|   slide down
| h  hammer-on
| p  pull-off
| ~  vibrato
| +  harmonic
| x  Mute note
===============================================================================

            
            
Suggest correction
Creating personal tab
Creating personal tab
You can edit any tab online and save it as your Personal.

You can edit, replace or remove any tab part or add personal notes – all changes will be seen only by you.

Personal tabs can be accessed anytime from any device, even offline.
Learn more »
Give kudos to tab author, rate the tab!
1 2 3 4 5
comments
print report bad tab
guest
You may want to rate the tab now too:
select rating
Wanna post a correction for this tab? Suggest correction