Oops, an error
Loading. Please wait.

Ghost Love Score bass

version 1
version 1

Whole song

Interactive

4,750 views 1 this week
no commentswrite comment
1 2 3 4 5
1 last vote to show rating
add to favorites
×
Save as Personal and add changes to this tab that will be seen only by you. Learn more ›
×
You can save this tab as Personal to edit and correct it or add notes. All changes will be seen only by you. Learn more »
launch autoscroll
font size
0
reset
guitar tuner
edit
Autoscroll
slow
fast
+/-
esc
set tempo
stop
Title: Ghost Love Score
Artist: Nightwish
Album: Once
Composer: Tuomas Holopainen
Tabbed by: FLBatista

INTRO :

F|------------------------------------|x2
C|------------------------------------|
G|-------------------3(7X)-5(7X)-5-2--|
D|-0(7x)-0(6x)-3--2-------------------|



F|----------------------------------|
C|----------------------------------|
G|------------------6(7X)-8(7x)-8-5-|
D|-3(7X)-3(6X)-6--5-----------------|



F|----------------------------------|
C|----------------------------------|
G|------------------6(7X)-8(7X)-5-5-|
D|-3(7X)-3(6X)-6--5-----------------|



F|-----------------------------------------------------------------|
C|------------------------------------------------------------/5---|
G|-----------------------------------------------------------------|
D|-3~~~~~~~~3~~/-15~~~~~~~~~15~~\--3-3-3-3-3-3-3-3-3-3-3-3-3-3---3-|
                                     +   +   +   +   +   +   +   +


VERSE 1:

F|------------------------------------------------------------------|
C|-------------------------------------------------------------5----|
G|---------------------------------5-5-5-5-5-5-5-5------------------|
D|-3-3-3-3-3-3-3-3-3-3-3-3-3-3-3-3-----------------3-3-3-3-3-3---23-|
     +   +   +   +   +   +   +   +   +   +   +   +   +   +   +


F|-----------------------------------------------------------------|
C|-----------------------------------------------------------4-5---|
G|-----------------------------------------------------------------|
D|-3-3-3-3-3-3-3-3-3-3-3-3-3-3-3-3-4-4-4-4-4-4-4-4-3-3-3-3-3-----3-|
     +   +   +   +   +   +   +   +   +   +   +   +   +   +

CHORUS 1:

F|-----------------------------------------------------------------|
C|-----------------------------------------------------------------|
G|-333-3-333-3-333-------------------------------------------------|
D|-----------------666-6-666-6-666-444-4-444-4-444-666-6-666-6-666-|



F|-----------------------------------------------------------------|
C|-----------------------------------------------------------------|
G|-333-3-333-3-333-------------------------------------------------|
D|-----------------666-6-666-6-666-111-1-111-1-111-333-3-333-3-333-|


PLAY:

-VERSE 1
-CHORUS 1

BRIDGE 1:

F|------------------------------|
C|-------3----------------------|
G|----------6-5-3-6-6-5-5--3~~--|
D|-1---1------------------------|


VERSE 2:

F|-----------------------------------------------------------------|
C|--------------3/5--5-5---5-3-------------------------------------|
G|-----------------------------3-3~---3----------3-3~---3----------|
D|-3---3--3-3-1----------1--------------6-6--6-6~---------1-1--1-1-|



F|--------------------------------------------------------------------|
C|-------------------3------------------------------------3-3--3-3----|
G|----------5-5--5-5---5-3-3~----------------3-6-6~---3-5-----------5-|
D|-3-3~---3---------------------6-3-3--3-3-6--------------------------|



F|--------------------------------|
C|------5-5---5-5---2-------------|
G|--------------------5-4-2---2-4-|
D|-3--3-----3-----3---------5-----|


Obs:
In this part, pay attention to the bass drum in this part, play along with him

DURING THE GUITAR SOLO:

F|------------------------------------------------------------------|
C|------------------------------------------------------------------|
G|-5(8X)-3(8X)-5(6X)---5-------------3---7(6X)-9-7-5(5X)------------|
D|-------------------5---3(8X)-5(6X)---2----------------3-1-3-5(6X)-|



F|--------------------|
C|--------------------|
G|-3------------------|
D|---2-0(8X)-3(8X)-5~-|


BRIDGE 2:

F|-----------------------------------------------------------|
C|-----------------------------------------------------------|
G|-----------------------------------------------------------|
D|-5-----5-3-5~-1--3-0-5~--5--1----5-3-5~--1-1-1--5-1-1-3-5~-|


VERSE 3:

F|-------------------------------------|X2
C|-------------------------------------|
G|---------------------------3-----3-2-|
D|-5(6X)-1-1-3-5(6X)-1-1-1-3---3-5-----|



F|-------------------------------------|
C|-------------------------------------|
G|-3(6X)---6-5-3(6X)---------6-5-3-6-5-|
D|-------6-----------4-4-4-6-----------|



F|-----------------------------------------|
C|-----------------------------------------|
G|-3(6X)---6-5-3(6X)---------6-5-3-3-3-----|
D|-------6-----------4-4-4-6-----------5---|


INTERLUDE 1:

F|--------------------------------------------------------|
C|--------------------------------------------------------|
G|-7-6-0----7-6-0-0--0-0--0-0--0-7-6-000-000--------------|
D|--------------------------------------------0-1-3-4-3-1-|


VERSE 4(2X):

F|-------------------------------------------------|
C|-------------------------------------------------|
G|-------------------------------------------------|
D|-0-000-0-000-0-000-0-4-1-0-000-0-000-0-000-3-4-1-|




INTERLUDE 2:

F|--------------------------------------------------------------------|
C|--------------------------------------------------------------------|
G|--------------5(6X)-------------------------------7-7-7-3-3-3-2-2-2-|
D|-5(12X)-3(6X)-------5-5-5-0-0-0-1-1-1-3-3-3-5-5-5-------------------|



F|----------------------------------------------------|
C|-------------------------------5-5-5-6-5-4-3-2-1----|
G|-3-3-3-------------------3-3-3----------------------|
D|-------3-3-3-4-4-4-6-6-6----------------------------|


INTERLUDE 2 (Part 2):

F|-------------------------------------------------|X2
C|-------------------------------------------------|
G|---------------------------------------------3-2-|
D|-5-5-555-5-553-3-335-5-555-5-551-1-113-3-335-----|



F|-------------------------------------------------|
C|-------------------------------------------------|
G|-3-3-333-3-331-1-113-3-333-3-33------------3-6-5-|
D|-------------------------------4-4-446-6-66------|



F|--------------------------------------------|
C|--------------------------------------------|
G|-3-3-333-3-331-1-113-3-333-3-33-------------|
D|-------------------------------4-4-446-6-66-|



F|--------------------------|
C|--------------------------|
G|-3~-1-1-1-3~--1(6X)-------|
D|--------------------4-4-6-|


CHOIR RIFF:

F|---------------------------------------------------------------|
C|---------------------------------------------------------------|
G|-3(7X)-3(7X)-6-5-----------------3(7X)-3(7X)-6-5---------------|
D|-----------------4(7X)-6(7X)-3-6-----------------4(7X)-6(7X)-3-|


VERSE 5:

F|-----------------------------------------------------------|X2
C|-----------------------------------------------------------|
G|-------7----7-------7--7-7-5-3--3-3--3---2-5--5-5-5-552-22-|
D|-0---0----8---0---0--------------------3-------------------|



F|----------------------------------|
C|----------------------------------|
G|-3-3-3-335-5-5-55-----------------|
D|-----------------0-0-0-005-5-5-55-|


CHORUS 2(5X):

F|-----------------------------------------------------------------|
C|-----------------------------------------------------------------|
G|---------------------------------666-6-666-6-666-888-8-888-8-888-|
D|-333-3-333-3-333-111-1-111-1-111---------------------------------|



F|-----------------------------------------------------------------|
C|-----------------------------------------------------------------|
G|---------------------------------333-3-333-3-333-555-5-555-5-555-|
D|-333-3-333-3-333-111-1-111-1-111---------------------------------|



Leg:

+ : Staccato
~ : Let Ring
/ : Slide Up
\ : Slide Down

            
            
Suggest correction
Creating personal tab
Creating personal tab
You can edit any tab online and save it as your Personal.

You can edit, replace or remove any tab part or add personal notes – all changes will be seen only by you.

Personal tabs can be accessed anytime from any device, even offline.
Learn more »
Give kudos to tab author, rate the tab!
1 2 3 4 5
comments
print report bad tab
guest
You may want to rate the tab now too:
select rating
Wanna post a correction for this tab? Suggest correction