Oops, an error
Loading. Please wait.

Ghost Love Score solo tab

version 1
version 1

Solo

Whole song

Interactive

4,950 views 3 this week
1 commentread comment
1 2 3 4 5
1 last vote to show rating
add to favorites
×
Save as Personal and add changes to this tab that will be seen only by you. Learn more ›
×
You can save this tab as Personal to edit and correct it or add notes. All changes will be seen only by you. Learn more »
launch autoscroll
font size
0
reset
how to read this tab
guitar tuner
edit
Autoscroll
slow
fast
+/-
esc
set tempo
stop
Author
Nightwish
Ghost Love Score- Solo
Once
       Cm       Bb             Cm       F         Gm     Dm       Cm
D|-------------------------------------------------------------------------|
G|---------10----------------------10--------------------------------------|
C|12~~---10--10-12---10-9--------10--10-12-10-----9---------------7-9------|
F|-----12----------------12-10-12------------12~~--10----------------10----|
A|-----------------------------------------------------7-7-10-10---------7-|
D|-------------------------------------------------------------------------|

  Gm      Eb          F       Gm
|-----------------------------------|
|---------10-10-12--13--15--17----\-|
|---------10------------------------|
|-10-9-7~~--------------------------|
|-----------------------------------|
|-----------------------------------|

~ vibrato
\ slide down

            
            
Suggest correction
Creating personal tab
Creating personal tab
You can edit any tab online and save it as your Personal.

You can edit, replace or remove any tab part or add personal notes – all changes will be seen only by you.

Personal tabs can be accessed anytime from any device, even offline.
Learn more »
Give kudos to tab author, rate the tab!
1 2 3 4 5
comments
print report bad tab
1 comment total.
0 reply
tabsfreak101 10 Sep 17, 2009 12:12 PM

This is totally perfect. I just have to play it a fret down so the first note would be eleventh fret. But then again I play on Drop D. This solo is awesome.

Thanks for tabbing it. Though one thing I did find:
Gm Eb F Gm
|-----------------------------------|
|---------10-10-12--13--15--17----\-|
|---------10------------------------|
|-10-9-7~~--------------------------|
|-----------------------------------|
|-----------------------------------|

-------------------------------------------------------
|-----------------------------------|
|-----------9-9-11--12--14--16----\-|
|-----------9-----------------------|

I might be wrong, but try it. :)

guest
You may want to rate the tab now too:
select rating
Wanna post a correction for this tab? Suggest correction