Oops, an error
Loading. Please wait.

Master Passion Greed bass

version 1
version 1

Whole song

Interactive

3,621 views 3 this week
1 commentread comment
1 2 3 4 5
1 last vote to show rating
add to favorites
×
Save as Personal and add changes to this tab that will be seen only by you. Learn more ›
×
You can save this tab as Personal to edit and correct it or add notes. All changes will be seen only by you. Learn more »
launch autoscroll
font size
0
reset
guitar tuner
edit
Autoscroll
slow
fast
+/-
esc
set tempo
stop
Band: Nightwish
Tuning 4-string: D A D G
Tabbed By ClosedRoad

intro
G ----------------------------------------------|
D ----------------------------------------------|
A ----------------------------------------------| 5x
D -00--00--00--0--0000---00--00--00--0--0--000--|

G -----------------------------------------|
D -----------------------------------------|
A -----------------------------------------|
D -00--00--00--0--0000---3530-0350--0356~--|

G ------------------------------------------------------|
D ------------------------------------------------------|
A ------------------------------------------------------|
D -00000000000000000000- (keep playing until) 3530-035--|

Pre Verse
G -----------------------------------|
D -----------------------------------| 1x
A -----------------------------------|
D -6-0-1-0-0-0-7-0-0-3-0-0-8-0-5-0---|

Cont.
G ----------------------------------|
D ----------------------------------|
A ----------------------------------| 2x
D -6-0-0-1-0-0-7-0-0-3-0-0-8-0-5-0--|

G --------------------|
D --------------------|
A --------------------|
D -3530--0350--0356~--|

G ----------------------------------|
D ----------------------------------| listen for perfect timing
A ----------------------------------|
D -2-------2-2--------2--------5-5--|

Verse
G ----------------------------------------------------------.
D ----------------------------------------------------------.
A ----------------------------------------------------------.
D -2--2h3-2-2222-2h3-2--2325---2--2h3-2--2222-2h3-2--2301---.

cont.
G -----------------------------------------------------|
D -----------------------------------------------------|
A -----------------------------------------------------| play the 2bars 2x
D -2--2h3-2-2222-2h3-2--2323---5--5h6-5--55-65856585---|

Chorus
G -----------------------------------------|
D -----------------------------------------|
A -----------------------------------------| 2x
D -0----000-000-000---0----00--00--000-----|

After Chorus
G ---------------------------------|
D ---------------------------------|
A ---------------------------------|
D -2-2----2-2--------2-2----2-2----|

Verse 2
G ----------------------------------------------------|
D ----------------------------------------------------|
A ----------------------------------------------------|
D --2--2h3-2-2222--2h3-2-2323---5--5h6-5-55-65856585--|

G ----------------------------------------------------------.
D ----------------------------------------------------------.
A ----------------------------------------------------------.
D -2--2h3-2-2222-2h3-2--2325---2--2h3-2--2222-2h3-2--2301---.

cont.
G -----------------------------------------------------| here he plays a 
D -----------------------------------------------------| riff can't figure 
A -----------------------------------------------------| it out feel free
D -2--2h3-2-2222-2h3-2--2323---5--5h6-5----------------| to command

G ----------------------------------------------------------.
D ----------------------------------------------------------.
A ----------------------------------------------------------.
D -2--2h3-2-2222-2h3-2--2325---2--2h3-2--2222-2h3-2--2301---.

cont.
G -----------------------------------------------------|
D -----------------------------------------------------|
A -----------------------------------------------------|
D -2--2h3-2-2222-2h3-2--2323---5--5h6-5--55-65856585---|

Chorus 2x

Bridge
G --------------------------------------------------------------------|
D --------------------------------------------------------------------|
A --------------------------------------------------------------------|
D -5-5------------3--3-5-5------------5~------------3--3-5--6--1--8--|

G -------------------------------------------|
D -------------------------------------------|
A -------------------------------------------|
D -101010101010101010101010-8~-10--3--6--8---|  (10's)

G -------------------------------------------|
D -------------------------------------------|
A -------------------------------------------|
D -101010101010101010101010-11~-10--3--6--8--|

G ---------------------------------------------|
D ---------------------------------------------|
A ----------------------------REST-------------|
D -5-5------------3--3-5-5---------------------|

G --------------------------------|
D --------------------------------|
A --------------------------------|
D -5~------------3--3-5--6--1--8--|

G -------------------------------------------|
D -------------------------------------------|
A -------------------------------------------|
D -101010101010101010101010-8~-10--3--6--8---|  (10's)

G -------------------------------------------|--------|
D -------------------------------------------|--------|
A -------------------------------------------|--------|
D -101010101010101010101010-11~-10--3--6--8--|-10-10--|

G --------------------------|
D --------------------------|
A --------------------------|
D -10--5--12--7--14--9--16--|

Breakdown
G ----------------------------------|
D ----------------------------------|
A ----------------------------------|11x
D -6-0-0-1-0-0-7-0-0-3-0-0-8-0-5-0--| 

G -------------------|
D -------------------|
A -------------------|
D -3530--0350--0356--|

G -------------------|
D -------------------|
A -------------------| 3x
D -0000000000000000--|

G --------------------|
D --------------------|
A --------------------|
D -3530--0350--0356---|

Breakdown 2
G ---------------------------------------|
D ---------------------------------------|
A ---------------------------------------| listen for perfect timing
D -0----00----00--000--0----00----00-35--| play between high guitar notes

G ----------------------------------------------|
D ----------------------------------------------|
A ----------------------------------------------| play 2bars 2x
D -0----00----00--000--0----6-5--5-3--3-1--0-0--|

Pre end
G -------------------------|
D -------------------------|
A -------------------------| 6x
D -0h1-0-000-0h1-0-000000--|

G -------------------------|
D -------------------------|
A -------------------------| 2x
D -0h3-0-000-0h3-0-000000--|

G -------------------------|
D -------------------------|
A -------------------------| 2x
D -0h1-0-000-0h1-0-000000--|

G -------------------------|
D -------------------------|
A -------------------------| 2x
D -0h3-0-000-0h3-0-000000--|

End
G ----------------------------|
D ----------------------------| 16x
A ----------------------------|
D -0-0h1-0-000-0h1-0-0h1-0h3--|

That's it
Cool song from there new album.
feel free to comment
greetings ClosedRoad

            
            
Suggest correction
Creating personal tab
Creating personal tab
You can edit any tab online and save it as your Personal.

You can edit, replace or remove any tab part or add personal notes – all changes will be seen only by you.

Personal tabs can be accessed anytime from any device, even offline.
Learn more »
Give kudos to tab author, rate the tab!
1 2 3 4 5
comments
print report bad tab
1 comment total.
0 reply
SoftParade1967 522 May 16, 2009 01:19 PM

This is no doubt a 5 star tab. Some of the fingering one here are awkward but it can be easily fixed. There the right notes. Theres one major thing i noticed though. The little fill Marco does before the breakdown. Some of the notes you have are right but you made it down an octave. Heres what I found.

G --------------------------|
D -10--6--13---8--15-14-12--|
A --------------------------|
D --------------------------|

Because I hear slides in there the fingers that way.

Overall good tab though!

guest
You may want to rate the tab now too:
select rating
Wanna post a correction for this tab? Suggest correction