Oops, an error
Loading. Please wait.

Master Passion Greed tab

version 1
version 1

Whole song

Interactive

14,118 views 9 this week
9 commentsread comments
1 2 3 4 5
x 12
add to favorites
×
Save as Personal and add changes to this tab that will be seen only by you. Learn more ›
×
You can save this tab as Personal to edit and correct it or add notes. All changes will be seen only by you. Learn more »
launch autoscroll
font size
0
reset
how to read this tab
guitar tuner
edit
Autoscroll
slow
fast
+/-
esc
set tempo
stop
Master Passion Greed
By Nightwish

EDITED 02/10/08
About 2/3 of the way through the song, I had a pattern being played on the 6th string. 
more careful listening, it is in reality an open string being played, the pattern instead 
played by the orchestra.

Also, right before the outro where there is a ---7---| played, I had a 6th
                                              -6---6-|
fret power chord being played in between. Also upon further listening, this is also in 
an open power chord.

Tuning: Drop D (D A D G B E)

|--------------------------------|--------------------------------|
|--------------------------------|--------------------------------|
|--------------------------------|--------------------------------|
|0-0---0-0---0-0---0---0-0-0-0---|0-0---0-0---0-0---0---0---0-0-0-|
|0-0---0-0---0-0---0---0-0-0-0---|0-0---0-0---0-0---0---0---0-0-0-|
|0-0---0-0---0-0---0---0-0-0-0---|0-0---0-0---0-0---0---0---0-0-0-|

|--------------------------------|--------------------------------|
|--------------------------------|--------------------------------|
|--------------------------------|--------------------------------|
|0-0---0-0---0-0---0---0-0-0-0---|0-0---0-0---0-0---0---0---0-0-0-|
|0-0---0-0---0-0---0---0-0-0-0---|0-0---0-0---0-0---0---0---0-0-0-|
|0-0---0-0---0-0---0---0-0-0-0---|0-0---0-0---0-0---0---0---0-0-0-|

|--------------------------------|--------------------------------|
|--------------------------------|--------------------------------|
|--------------------------------|--------------------------------|
|0-0---0-0---0-0---0---0-0-0-----|0-0---0-0---0-0---0---0---0-0-0-|
|0-0---0-0---0-0---0---0-0-0---5-|0-0---0-0---0-0---0---0---0-0-0-|
|0-0---0-0---0-0---0---0-0-0-6---|0-0---0-0---0-0---0---0---0-0-0-|

|--------------------------------|--------------------------------|
|--------------------------------|--------------------------------|
|--------------------------------|--------------------------------|
|0-0---0-0---0-0---0---0-0-0-----|0-0---0-0---0-0---0---0---0-0-0-|
|0-0---0-0---0-0---0---0-0-0-5---|0-0---0-0---0-0---0---0---0-0-0-|
|0-0---0-0---0-0---0---0-0-0---6-|0-0---0-0---0-0---0---0---0-0-0-|

|--------------------------------|--------------------------------|
|--------------------------------|--------------------------------|
|--------------------------------|--------------------------------|
|0-0---0-0---0-0---0---0-0-0-----|0-0---0-0---0-0---0---0---0-0-0-|
|0-0---0-0---0-0---0---0-0-0---5-|0-0---0-0---0-0---0---0---0-0-0-|
|0-0---0-0---0-0---0---0-0-0-6---|0-0---0-0---0-0---0---0---0-0-0-|

|--------------------------------|--------------------------------|
|--------------------------------|--------------------------------|
|--------------------------------|--------------------------------|
|0-0---0-0---0-0---0---0-0-0-----|3-5-3-0---0-3-5-0---0-3-5-6~----|
|0-0---0-0---0-0---0---0-0-0-5---|3-5-3-0---0-3-5-0---0-3-5-6~----|
|0-0---0-0---0-0---0---0-0-0---6-|3-5-3-0---0-3-5-0---0-3-5-6~----|

|--------------------------------|--------------------------------|
|--------------------------------|--------------------------------|
|--------------------------------|--------------------------------|
|--------------------------------|--------------------------------|
|--------------------------------|--------------------------------|
|---------------00000000000000000|00000000000000000000000000000000|

|--------------------------------|--------------------------------|
|--------------------------------|--------------------------------|
|--------------------------------|--------------------------------|
|--------------------------------|----------------3-5-3-0---0-3-5-|
|--------------------------------|----------------3-5-3-0---0-3-5-|
|00000000000000000000000000000000|000000000000000-3-5-3-0---0-3-5-|

|--------------------------------|--------------------------------|
|--------------------------------|--------------------------------|
|--------------------------------|--------------------------------|
|6-0-1-0-0-0-7-0-0-3-0-0-8-0-5-0-|6-0-0-1-0-0-7-0-0-3-0-0-8-0-5-0-|
|6-0-1-0-0-0-7-0-0-3-0-0-8-0-5-0-|6-0-0-1-0-0-7-0-0-3-0-0-8-0-5-0-|
|6-0-1-0-0-0-7-0-0-3-0-0-8-0-5-0-|6-0-0-1-0-0-7-0-0-3-0-0-8-0-5-0-|

|--------------------------------|--------------------------------|
|--------------------------------|--------------------------------|
|--------------------------------|--------------------------------|
|6-0-0-1-0-0-7-0-0-3-0-0-8-0-5-0-|3-5-3-0---0-3-5-0---0-3-5-6~----|
|6-0-0-1-0-0-7-0-0-3-0-0-8-0-5-0-|3-5-3-0---0-3-5-0---0-3-5-6~----|
|6-0-0-1-0-0-7-0-0-3-0-0-8-0-5-0-|3-5-3-0---0-3-5-0---0-3-5-6~----|

|--------------------------------|--------------------------------|
|--------------------------------|--------------------------------|
|--------------------------------|--------------------------------|
|2---2h3-2---x-x-2h3-2---2-3-2-5-|2---2h3-2---x-x-2h3-2---2-3-0-1-|
|2---2h3-2---x-x-2h3-2---2-3-2-5-|2---2h3-2---x-x-2h3-2---2-3-0-1-|
|2---2h3-2---x-x-2h3-2---2-3-2-5-|2---2h3-2---x-x-2h3-2---2-3-0-1-|

|--------------------------------|--------------------------------|
|--------------------------------|--------------------------------|
|--------------------------------|--------------------------------|
|2---2h3-2---x-x-2h3-2---2-3-2-3-|5---5h6-5---x-x-6-5-8-5-6-5-8-5-|
|2---2h3-2---x-x-2h3-2---2-3-2-3-|5---5h6-5---x-x-6-5-8-5-6-5-8-5-|
|2---2h3-2---x-x-2h3-2---2-3-2-3-|5---5h6-5---x-x-6-5-8-5-6-5-8-5-|

|--------------------------------|--------------------------------|
|--------------------------------|--------------------------------|
|--------------------------------|--------------------------------|
|2---2h3-2---x-x-2h3-2---2-3-2-5-|2---2h3-2---x-x-2h3-2---2-3-0-1-|
|2---2h3-2---x-x-2h3-2---2-3-2-5-|2---2h3-2---x-x-2h3-2---2-3-0-1-|
|2---2h3-2---x-x-2h3-2---2-3-2-5-|2---2h3-2---x-x-2h3-2---2-3-0-1-|

|--------------------------------|--------------------------------|
|--------------------------------|--------------------------------|
|--------------------------------|--------------------------------|
|2---2h3-2---x-x-2h3-2---2-3-2-3-|5---5h6-5---x-x-6-5-8-5-6-5-8-5-|
|2---2h3-2---x-x-2h3-2---2-3-2-3-|5---5h6-5---x-x-6-5-8-5-6-5-8-5-|
|2---2h3-2---x-x-2h3-2---2-3-2-3-|5---5h6-5---x-x-6-5-8-5-6-5-8-5-|

|--------------------------------|--------------------------------|
|--------------------------------|--------------------------------|
|--------------------------------|--------------------------------|
|2---2h3-2---x-x-2h3-2---2-3-2-5-|2---2h3-2---x-x-2h3-2---2-3-0-1-|
|2---2h3-2---x-x-2h3-2---2-3-2-5-|2---2h3-2---x-x-2h3-2---2-3-0-1-|
|2---2h3-2---x-x-2h3-2---2-3-2-5-|2---2h3-2---x-x-2h3-2---2-3-0-1-|

|--------------------------------|--------------------------------|
|--------------------------------|--------------------------------|
|--------------------------------|--------------------------------|
|2---2h3-2---x-x-2h3-2---2-3-2-3-|5---5h6-5---x-x-6-5-8-5-6-5-8-5-|
|2---2h3-2---x-x-2h3-2---2-3-2-3-|5---5h6-5---x-x-6-5-8-5-6-5-8-5-|
|2---2h3-2---x-x-2h3-2---2-3-2-3-|5---5h6-5---x-x-6-5-8-5-6-5-8-5-|

|--------------------------------|--------------------------------|
|--------------------------------|--------------------------------|
|--------------------------------|--------------------------------|
|0-----------0-------0-------0---|0-------------------------------|
|0-----------0-------0-------0---|0-------------------------------|
|0-------0-0-0---0-0-0---0-0-0---|0-----------0-0---0-0---0-0-0---|

|--------------------------------|--------------------------------|
|--------------------------------|--------------------------------|
|--------------------------------|--------------------------------|
|0-----------0-------0-------0---|0-------------------------------|
|0-----------0-------0-------0---|0-------------------------------|
|0-------0-0-0---0-0-0---0-0-0---|0-----------0-0---0-0---0-0-0---|

|--------------------------------|--------------------------------|
|--------------------------------|--------------------------------|
|--------------------------------|--------------------------------|
|2-2-----2-2---------------------|2-2-----2-2---------------------|
|2-2-----2-2---------------------|2-2-----2-2---------------------|
|2-2-----2-2---------------------|2-2-----2-2---------------------|

|--------------------------------|--------------------------------|
|--------------------------------|--------------------------------|
|--------------------------------|--------------------------------|
|2---2h3-2-------2h3-2---2h3-2h3-|5---5h6-5-------6p5-8p5-6p5-8p5-|
|--------------------------------|--------------------------------|
|--------------------------------|--------------------------------|

|--------------------------------|--------------------------------|
|--------------------------------|--------------------------------|
|--------------------------------|--------------------------------|
|2---2h3-2-------2h3-2---2-3-2-5-|2---2h3-2-------2h3-2---2-3-0-1-|
|--------------------------------|--------------------------------|
|--------------------------------|--------------------------------|

|--------------------------------|--------------------------------|
|--------------------------------|--------------------------------|
|--------------------------------|--------------------------------|
|2---2h3-2-------2h3-2---2h3-2h3-|5---5h6-5-----------------------|
|--------------------------------|--------------------------------|
|--------------------------------|--------------------------------|

|--------------------------------|--------------------------------|
|--------------------------------|--------------------------------|
|--------------------------------|--------------------------------|
|2---2h3-2---x-x-2h3-2---2-3-2-5-|2---2h3-2---x-x-2h3-2---2-3-0-1-|
|2---2h3-2---x-x-2h3-2---2-3-2-5-|2---2h3-2---x-x-2h3-2---2-3-0-1-|
|2---2h3-2---x-x-2h3-2---2-3-2-5-|2---2h3-2---x-x-2h3-2---2-3-0-1-|

|--------------------------------|--------------------------------|
|--------------------------------|--------------------------------|
|--------------------------------|--------------------------------|
|2---2h3-2---x-x-2h3-2---2-3-2-5-|2---2h3-2---x-x-2h3-2---2-3-0-1-|
|2---2h3-2---x-x-2h3-2---2-3-2-5-|2---2h3-2---x-x-2h3-2---2-3-0-1-|
|2---2h3-2---x-x-2h3-2---2-3-2-5-|2---2h3-2---x-x-2h3-2---2-3-0-1-|

|--------------------------------|--------------------------------|
|--------------------------------|--------------------------------|
|--------------------------------|--------------------------------|
|2---2h3-2---x-x-2h3-2---2-3-2-3-|5---5h6-5---x-x-6p5-8p5-6p5-8p5-|
|2---2h3-2---x-x-2h3-2---2-3-2-3-|5---5h6-5---x-x-----------------|
|2---2h3-2---x-x-2h3-2---2-3-2-3-|5---5h6-5---x-x-----------------|

|--------------------------------|--------------------------------| x2
|--------------------------------|--------------------------------|
|--------------------------------|--------------------------------|
|0-----------0-------0-------0---|0-------------------------------|
|0-----------0-------0-------0---|0-------------------------------|
|0-------0-0-0---0-0-0---0-0-0---|0-----------0-0---0-0---0-0-0---|


Guitar 1

|------------------------------------------------| x4
|------------------------------------------------|
|------14----12-------------15----14----12-------|
|12-15----12----12-15-14-12----12----12----12-15-|
|------------------------------------------------|
|------------------------------------------------|

Guitar 2

|--------------------------------|--------------------------------| x2
|--------------------------------|--------------------------------|
|--------------------------------|--------------------------------|
|0-----------0-------0-------0---|0-------------------------------|
|0-----------0-------0-------0---|0-------------------------------|
|0-------0-0-0---0-0-0---0-0-0---|0-----------0-0---0-0---0-0-0---|

Guitar 1

|------------------------------------------------|-----------------------------------------------|
|------------------------------------------------|-----------------------------------------------|
|------------------------------------------------|-----------------------------------------------|
|------12----10-------------13----12----10-------|------12----------13----------13----------12---|
|10-13----10----10-13-12-10----10----10----10-13-|10-13----13-10-13----13-10-13----13-10-13----13|
|------------------------------------------------|-----------------------------------------------|

Guitar 2

|--------------------------------|--------------------------------|
|--------------------------------|--------------------------------|
|--------------------------------|--------------------------------|
|5-5-----------------------3---3-|5-5-----------------------------|
|5-5-----------------------3---3-|5-5-----------------------------|
|5-5-----------------------3---3-|5-5-----------------------------|

Guitar 1

|------------------------------------------------|-----------------------------------------------|
|------------------------------------------------|-----------------------------------------------|
|------------------------------------------------|-----------------------------------------------|
|------12----10-------------13----12----10-------|------12----------13----------13----------15---|
|10-13----10----10-13-12-10----10----10----10-13-|10-13----13-10-13----13-10-13----13-10-13----13|
|------------------------------------------------|-----------------------------------------------|

Guitar 2

|--------------------------------|--------------------------------|
|--------------------------------|--------------------------------|
|--------------------------------|--------------------------------|
|5-------------------------3---3-|5-------6-------1-------8-------|
|5-------------------------3---3-|5-------6-------1-------8-------|
|5-------------------------3---3-|5-------6-------1-------8-------|

Guitar 1

|------------------------------------------------| x4
|------------------------------------------------|
|------12----10-------------13----12----10-------|
|10-13----10----10-13-12-10----10----10----10-13-|
|------------------------------------------------|
|------------------------------------------------|

Guitar 2

|--------------------------------|--------------------------------|
|--------------------------------|--------------------------------|
|--------------------------------|--------------------------------|
|10-------10---10-10---------8---|10------3-------6-------8-------|
|10-------10---10-10---------8---|10------3-------6-------8-------|
|10-------10---10-10---------8---|10------3-------6-------8-------|

|--------------------------------|--------------------------------|
|--------------------------------|--------------------------------|
|--------------------------------|--------------------------------|
|10-------10---10-10---------11--|10------3-------6-------8-------|
|10-------10---10-10---------11--|10------3-------6-------8-------|
|10-------10---10-10---------11--|10------3-------6-------8-------|

Guitar 1

|------------------------------------------------|-----------------------------------------------|
|------------------------------------------------|-----------------------------------------------|
|------------------------------------------------|-----------------------------------------------|
|------12----10-------------13----12----10-------|-----------------------------------------------|
|10-13----10----10-13-12-10----10----10----10-13-|-----------------------------------------------|
|------------------------------------------------|-----------------------------------------------|

Guitar 2

|--------------------------------|--------------------------------|
|--------------------------------|--------------------------------|
|--------------------------------|--------------------------------|
|5-5-----------------------3---3-|5---5-6-5---5-8-5---5-6-5-6-5-4-|
|5-5-----------------------3---3-|5---5-6-5---5-8-5---5-6-5-6-5-4-|
|5-5-----------------------3---3-|5---5-6-5---5-8-5---5-6-5-6-5-4-|


Guitar 1

|------------------------------------------------|-----------------------------------------------|
|------------------------------------------------|-----------------------------------------------|
|------------------------------------------------|-----------------------------------------------|
|------12----10-------------13----12----10-------|------12----------13----------13----------15---|
|10-13----10----10-13-12-10----10----10----10-13-|10-13----13-10-13----13-10-13----13-10-13----13|
|------------------------------------------------|-----------------------------------------------|

Guitar 2

|--------------------------------|--------------------------------|
|--------------------------------|--------------------------------|
|--------------------------------|--------------------------------|
|5-------------------------3---3-|5-------6-------1-------8-------|
|5-------------------------3---3-|5-------6-------1-------8-------|
|5-------------------------3---3-|5-------6-------1-------8-------|


Guitar 1

|------------------------------------------------| x4
|------------------------------------------------|
|------12----10-------------13----12----10-------|
|10-13----10----10-13-12-10----10----10----10-13-|
|------------------------------------------------|
|------------------------------------------------|

Guitar 2

|--------------------------------|--------------------------------|
|--------------------------------|--------------------------------|
|--------------------------------|--------------------------------|
|10-------10---10-10---------8---|10------3-------6-------8-------|
|10-------10---10-10---------8---|10------3-------6-------8-------|
|10-------10---10-10---------8---|10------3-------6-------8-------|

|--------------------------------|--------------------------------|-----|
|--------------------------------|--------------------------------|-----|
|--------------------------------|--------------------------------|-----|
|10-------10---10-10---------11--|10------3-------6-------8-------|10-10|
|10-------10---10-10---------11--|10------3-------6-------8-------|10-10|
|10-------10---10-10---------11--|10------3-------6-------8-------|10-10|

Guitar 1

|------------------------------------------------|
|------------------------------------------------|
|------12----10-------------13----12----10-------|
|10-13----10----10-13-12-10----10----10----10-13-|
|------------------------------------------------|
|------------------------------------------------|

|------------------------------------------------|-----------------------------------------------|
|------------------------------------------------|------------------13---------------------------|
|------12----------13----------13----------15----|------15---------------------------------------|
|10-13----13-10-13----13-10-13----13-10-13----13-|10-13----13-10-13----13-0----------------------|
|------------------------------------------------|------------------------0----------------------|
|------------------------------------------------|------------------------0----------------------|

|4-----------5-----------6---3---|4~------------------------------|
|--3-3-4-3-3---3-3-6-3-3---3---3-|--------------------------------|
|--------------------------------|--------------------------------|
|--------------------------------|--------------------------------|
|--------------------------------|--------------------------------|
|--------------------------------|--------------------------------|

|4-----------5-----------6---3---|4~----------//////////////////22|
|--3-3-4-3-3---3-3-6-3-3---3---3-|--------------------------------|
|--------------------------------|--------------------------------|
|--------------------------------|--------------------------------|
|--------------------------------|--------------------------------|
|--------------------------------|--------------------------------|

|--------------------------------|--------------------------------|
|--------------------------------|--------------------------------|
|--------------------------------|--------------------------------|
|6-0-0-1-0-0-7-0-0-3-0-0-8-0-5-0-|6-0-0-1-0-0-7-0-0-3-0-0-8-0-5-0-|
|6-0-0-1-0-0-7-0-0-3-0-0-8-0-5-0-|6-0-0-1-0-0-7-0-0-3-0-0-8-0-5-0-|
|6-0-0-1-0-0-7-0-0-3-0-0-8-0-5-0-|6-0-0-1-0-0-7-0-0-3-0-0-8-0-5-0-|

|--------------------------------|--------------------------------|
|--------------------------------|--------------------------------|
|--------------------------------|--------------------------------|
|6-0-0-1-0-0-7-0-0-3-0-0-8-0-5-0-|3-5-3-0---0-3-5-0---0-3-5-6~----|
|6-0-0-1-0-0-7-0-0-3-0-0-8-0-5-0-|3-5-3-0---0-3-5-0---0-3-5-6~----|
|6-0-0-1-0-0-7-0-0-3-0-0-8-0-5-0-|3-5-3-0---0-3-5-0---0-3-5-6~----|

|--------------------------------|--------------------------------|
|--------------------------------|--------------------------------|
|--------------------------------|--------------------------------|
|--------------------------------|--------------------------------|
|--------------------------------|--------------------------------|
|0-0-0-0-0-0-0-0-0-0-0-0-0-0-0-0-|0-0-0-0-0-0-0-0-0-0-0-0-0-0-0-0-|

|--------------------------------|--------------------------------|
|--------------------------------|--------------------------------|
|--------------------------------|--------------------------------|
|--------------------------------|3-5-3-0---0-3-5-0---0-3-5-6~----|
|--------------------------------|3-5-3-0---0-3-5-0---0-3-5-6~----|
|0-0-0-0-0-0-0-0-0-0-0-0-0-0-0-0-|3-5-3-0---0-3-5-0---0-3-5-6~----|

|--------------------------------|--------------------------------|
|--------------------------------|--------------------------------|
|--7-----------7-----------------|--7-----------7-----------------|
|6---6-------6---6---0-0---0-0-0-|6---6-------6---6---0-0---3-5---|
|--------------------0-0---0-0-0-|--------------------0-0---3-5---|
|--------------------0-0---0-0-0-|--------------------0-0---3-5---|

|--------------------------------|--------------------------------|
|--------------------------------|--------------------------------|
|--7-----------7-----------------|--7-----------------------------|
|6---6-------6---6---0-0---0-0-0-|6---6-------6-5---5-3---3-1-----|
|--------------------0-0---0-0-0-|------------6-5---5-3---3-1-----|
|--------------------0-0---0-0-0-|------------6-5---5-3---3-1-0-0-|

|--------------------------------|--------------------------------|
|--------------------------------|--------------------------------|
|--7-----------7-----------------|--7-----------7-----------------|
|6---6-------6---6---0-0---0-0-0-|6---6-------6---6---0-0---3-5---|
|--------------------0-0---0-0-0-|--------------------0-0---3-5---|
|--------------------0-0---0-0-0-|--------------------0-0---3-5---|

|--------------------------------|--------------------------------|
|--------------------------------|--------------------------------|
|--7-----------7-----------------|--7-----------------------------|
|6---6-------6---6---0-0---0-0-0-|6---6-------6-5---5-3---3-1-----|
|--------------------0-0---0-0-0-|------------6-5---5-3---3-1-----|
|--------------------0-0---0-0-0-|------------6-5---5-3---3-1-0-0-|

|--------------------------------| x4
|--------------------------------|
|--------------------------------|
|0h1-0-------0h1-0---------------|
|0h1-0-------0h1-0---------------|
|0h1-0---0-0-0h1-0---0-0-0-0-0-0-|

|--------------------------------| x2
|--------------------------------|
|--------------------------------|
|0h1-0-------0h1-0---------------|
|0h1-0-------0h1-0---------------|
|0h1-0---0-0-0h1-0---0-0-0-0-0-0-|

|--------------------------------| x2
|--------------------------------|
|--------------------------------|
|0h3-0-------0h3-0---------------|
|0h3-0-------0h3-0---------------|
|0h3-0---0-0-0h3-0---0-0-0-0-0-0-|

|--------------------------------| x2
|--------------------------------|
|--------------------------------|
|0h1-0-------0h1-0---------------|
|0h1-0-------0h1-0---------------|
|0h1-0---0-0-0h1-0---0-0-0-0-0-0-|

|--------------------------------| x2
|--------------------------------|
|--------------------------------|
|0h3-0-------0h3-0---------------|
|0h3-0-------0h3-0---------------|
|0h3-0---0-0-0h3-0---0-0-0-0-0-0-|

|--------------------------------| x16
|--------------------------------|
|--------------------------------|
|0---0h1-0-------0h1-0---0h1-0h3-|
|0---0h1-0-------0h1-0---0h1-0h3-|
|0---0h1-0---0-0-0h1-0---0h1-0h3-|

            
            
Suggest correction
Creating personal tab
Creating personal tab
You can edit any tab online and save it as your Personal.

You can edit, replace or remove any tab part or add personal notes – all changes will be seen only by you.

Personal tabs can be accessed anytime from any device, even offline.
Learn more »
comments
print report bad tab
9 comments total. Showing first comments.
0 reply
spencer Cr 507 Nov 02, 2007 11:50 AM

not bad man i think i may start working on the guritar pro version of this w/ the orchestra

0 reply
lionguitar 71 Nov 03, 2007 11:30 AM

great jobb. i was readdy to tab this song to, but this is way better then i was about to do. nine thumbs up!!!

+4 reply
Onaga 10 Nov 04, 2007 10:20 AM

Good job, however the song is played in all strings dropped a whole step (D G C F A D)

guest
You may want to rate the tab now too:
select rating
Wanna post a correction for this tab? Suggest correction