Oops, an error
Loading. Please wait.
19,588 views 15 this week
3 commentsread comments
1 2 3 4 5
x 5
add to favorites
×
Save as Personal and add changes to this tab that will be seen only by you. Learn more ›
×
You can save this tab as Personal to edit and correct it or add notes. All changes will be seen only by you. Learn more »
launch autoscroll
font size
0
reset
how to read this tab
guitar tuner
backing track
0:00
0:00
edit
Autoscroll
slow
fast
+/-
esc
set tempo
stop
Song: Nemo
Artist: Nightwish
Album: Once
Tuning: Drop D

Yes, I know this song was recorded in D standard, but I tabbed it in Drop D.
The other tabs needed a little tweaking, so I tabbed it and put in the Piano, 
Strings, and Vocals as well.


INTRO 

Piano
E|-------22----22--20--22--17----22----22--20--22--------20----20--22--17--15----------------------| 
B|-------------------------------------------------18----------------------------18----17----------|
G|-------------------------------------------------------------------------------------------17----|
D|-------------------------------------------------------------------------------------------------| 
A|-------------------------------------------------------------------------------------------------|
D|-------------------------------------------------------------------------------------------------|

E|-------| 
B|-------|
G|-19~---|
D|-------| 
A|-------|
D|-------|

Kick with Guitar
E|-------------------------------------------------------------------------------------------------| 
B|-------------------------------------------------------------------------------------------------|
G|-------------------------------------------------------------------------5--5--5--5--5--5--5--5--|
D|-0--0--0--0--0--0--0--0--0--0--0--0--0--0--0--0--3--3--3--3--3--3--3--3--5--5--5--5--5--5--5--5--| 
A|-0--0--0--0--0--0--0--0--0--0--0--0--0--0--0--0--3--3--3--3--3--3--3--3--3--3--3--3--3--3--3--3--|
D|-0--0--0--0--0--0--0--0--0--0--0--0--0--0--0--0--3--3--3--3--3--3--3--3--------------------------|



VERSE I

Vocals (Tarja) 
E|-------------------------------------------------------------------------------------------------| 
B|-------------------------------------------------------------------------------------------------|
G|-10-------10-10-9--7-----9--------9--9--7--------7--------7-----7--------------------------------|
D|-------------------------------------------10----------------------10----7~--------------------7-| 
A|-------------------------------------------------------------------------------------------------|
D|-------------------------------------------------------------------------------------------------|
   This     is me-e -e     for      fore -e -ver   One      of   the lost  ones                 The


E|-------------------------------------------------------------------------------------------------| 
B|-------------------------------------------------------------------------------------------------|
G|-10-------10-10-9--7-----9--------9--9--7--------12-15----14-------7----10~----------9~----------|
D|-------------------------------------------10----------------------------------------------------| 
A|-------------------------------------------------------------------------------------------------|
D|-------------------------------------------------------------------------------------------------|
   One    with ou u -t’a   name   With o  u t’an   honest   heart    as    com    -    pass

E|-------------------------------------------------------------------------------------------------| 
B|-------------------------------------------------------------------------------------------------|
G|-10-------10-10-9--7-----9--------9--9--7--------7--------7-----7--------------------------------|
D|-------------------------------------------10----------------------10----7~--------------------7-| 
A|-------------------------------------------------------------------------------------------------|
D|-------------------------------------------------------------------------------------------------|
   This     is me-e -e     for      fore -e -ver   One      with  ou t’a   name                These

E|-------------------------------------------------------------------------------------------------| 
B|-------------------------------------------------------------------------------------------------|
G|-12-------15-14----7-----10\9--7~----------------12-------15-14----7-----10~---------9~----------|
D|----------------------------------------------12-------------------------------------------------| 
A|-------------------------------------------------------------------------------------------------|
D|-------------------------------------------------------------------------------------------------|
   Lines   the last  en    de-a -vor            To find    the miss -ing   life    -   line



CHORUS

Guitar
2x
E|-------------------------------------------------------------------------------------------------| 
B|-------------------------------------------------------------------------------------------------|
G|-------------------------------------------------------------------------5--5--5--5--5--5--5--5--|
D|-0--0--0--0--0--0--0--0--0--0--0--0--0--0--0--0--3--3--3--3--3--3--3--3--5--5--5--5--5--5--5--5--| 
A|-0--0--0--0--0--0--0--0--0--0--0--0--0--0--0--0--3--3--3--3--3--3--3--3--3--3--3--3--3--3--3--3--|
D|-0--0--0--0--0--0--0--0--0--0--0--0--0--0--0--0--3--3--3--3--3--3--3--3--------------------------|

Vocals (Tarja)
2x
E|-------------------------------------------------------------------------------------------------| 
B|-------15----13-15-------------15----13-15-------------13---/15-------15-------------------------|
G|-------------------------14----------------------10----------------------14----12----10----5-----|
D|-------------------------------------------------------------------------------------------------| 
A|-------------------------------------------------------------------------------------------------|
D|-------------------------------------------------------------------------------------------------|
         Oh   how I        wish  For  soothing     rain  All   I      wish is    to    dream a   -
         My   loving       heart Lost in  the      dark  For   hope   I'd give   my     ev  ‘ry  -

E|-------| 
B|-------|
G|-7~----|
D|-------| 
A|-------|
D|-------|
   gain
   thing




PRE-VERSE II

Vocals (Tarja)
E|-------------------------------------------------------------------------------------------------| 
B|-------------------------------------------------------------------------------------------------|
G|----------10-10\9--7-----9--9-----9--9-\7-\5--7--7--7-----7--------------------------------------|
D|-------------------------------------------------------------------10----7~-------------------7--| 
A|-------------------------------------------------------------------------------------------------|
D|-------------------------------------------------------------------------------------------------|
            My fl-o  -wer, withered be-tw ee-en Th pa-ges   two      and   three                The

Piano
E|-------------10-12-13-17-13-12-10----10-13-12-13-------------10-12-13-17-13-12-10-12-15----13-12-| 
B|-15-------10----------------------13-------------15-------10----------------------------13-------|
G|-------10----------------------------------------------10----------------------------------------|
D|----12----------------------------------------------12-------------------------------------------| 
A|-------------------------------------------------------------------------------------------------|
D|-------------------------------------------------------------------------------------------------|



VERSE II 

Vocals
E|-------------------------------------------------------------------------------------------------| 
B|-------------------------------------------------------------------------------------------------|
G|-10----------10\9--7-----9--9--------9-\7-\5-----12/15---\14-------7----10~---------\9~----------|
D|-------------------------------------------------------------------------------------------------| 
A|-------------------------------------------------------------------------------------------------|
D|-------------------------------------------------------------------------------------------------|
   Once        a-and for   e -ver      blo-o-m     go-on(e) with     my   si    -     ins


E|-------------------------------------------------------------------------------------------------| 
B|-------------------------------------------------------------------------------------------------|
G|-13-------13-13-12-10----12-------12-12-10-------10----10-10-------------------------------------|
D|-------------------------------------------13-------------------13\10----10~---------------------| 
A|-------------------------------------------------------------------------------------------------|
D|-------------------------------------------------------------------------------------------------|
   Walk    the dark  path  Sleep  with a -an-gels  Call the past  fo -or   help


E|-------------------------------------------------------------------------------------------------| 
B|-11----14-13-------------------------------------11----14-13-------------------------------------|
G|-------------------10----13\12\10----------10-10-------------------10----13~---------12~---------|
D|-------------------------------------------------------------------------------------------------| 
A|-------------------------------------------------------------------------------------------------|
D|-------------------------------------------------------------------------------------------------|
  Touch  me with     your  la-a -ove        And reveal   to me       my    true        name

Guitars
E|-------------------------------------------------------------------------------------------------| 
B|-------------------------------------------------------------------------------------------------|
G|----------------------------------------------------------------------------------------5--5--5--|
D|-------------------------------------------------------------------------------------5--5--5--5--| 
A|-------------------------------------------------------------------------3--3--3--3--3--3--3--3--|
D|-0--0--0--0--0--0--0--0--3--3--3--3--3--3--3--3--5--5--5--5--5--5--5--5--------------------------|
 PM-  -  -  -  -  -  -  -  -  -  -  -  -  -  -  -  -  -  -  -  -  -  -  -  -  -  -  -  -  

E|-------------------------------------------------------------------------------------------------| 
B|-------------------------------------------------------------------------------------------------| 
G|-------------------------------------------------------------------------------------------------| 
D|-------------------------------------------------------------------------------------------------| 
A|-3--3--3--3--3--3--3--3--3--3--3--3--3--3--3--3--3--3--3--3--3--3--3--3--3--3--3--3--3--3--3--3--|
D|-3--3--3--3--3--3--3--3--3--3--3--3--3--3--3--3--3--3--3--3--3--3--3--3--3--3--3--3--3--3--3--3--|
 PM-  -  -  -  -  -  -  -  -  -  -  -  -  -  -  -  -  -  -  -  -  -  -  -  -  -  -  -  -  -  -  -

E|-------------------------------------------------------------------------------------------------| 
B|-------------------------------------------------------------------------------------------------|
G|-3-----------------------------------------------3--------------3--3--3--------------------------|
D|-3-----------------------3-----------------------3-----------3--3--3--3--3--3--3--3--3--3--3--3--| 
A|-1--1--1--1--1--1--1--1--3-----------------------1--1--1--1--1--1--1--1--1--1--1--1--1--1--1--1--|
D|-------------------------3--3--3--3--3--3--3--3--------------------------1--1--1--1--1--1--1--1--|
 PM   -  -  -  -  -  -  -     -  -  -  -  -  -  -     -  -  -  -   



CHORUS

Vocals are the as the first Chorus

Guitars
2x
E|-------------------------------------------------------------------------------------------------| 
B|-------------------------------------------------------------------------------------------------|
G|-------------------------------------------------------------------------5--5--5--5--5--5--5--5--|
D|-0--0--0--0--0--0--0--0--0--0--0--0--0--0--0--0--3--3--3--3--3--3--3--3--5--5--5--5--5--5--5--5--| 
A|-0--0--0--0--0--0--0--0--0--0--0--0--0--0--0--0--3--3--3--3--3--3--3--3--3--3--3--3--3--3--3--3--|
D|-0--0--0--0--0--0--0--0--0--0--0--0--0--0--0--0--3--3--3--3--3--3--3--3--------------------------|

Strings
E|-------------------------------------------------------------------------------------------------| 
B|-15~---------18~---------17~---------------13----18~---------------------17~---------------------|
G|-x-----------x-----------x-----------------x-----x-----------------------x-----------------------|
D|-12~---------15~---------14~---------------10----15~---------------------14~---------------------| 
A|-------------------------------------------------------------------------------------------------|
D|-------------------------------------------------------------------------------------------------|

E|-------------------------------------------------17~---------------15\13-15~---------20~---------| 
B|-15~---------18~---------17~---------------13----x-----------------x-----x-----------x-----------|
G|-x-----------x-----------x-----------------x-----14~---------------12\10-12~---------17~---------|
D|-12~---------15~---------14~---------------10----------------------------------------------------| 
A|-------------------------------------------------------------------------------------------------|
D|-------------------------------------------------------------------------------------------------|



BRIDGE

Vocals are the Same as the Chorus:
Oh how I wish/For soothing rain/Oh how I wish to dream again
Once and for all/And all for once/Nemo my name forevermore

Guitar
E|-------------------------------------------------------------------------------------------------| 
B|-------------------------------------------------------------------------------------------------|
G|-7~----------------------------------------------5~----------------------------------------------|
D|-7~----------------------------------------------5~----------------------------------------------| 
A|-5~----------------------------------------------3~----------------------------------------------|
D|-0~----------------------------------------------------------------------------------------------|
 |
 |Stings I
E|-22~---------------------------------------------25~---------------------24~---------22~---------| 
B|-x-----------------------------------------------x-----------------------x-----------x-----------|
G|-19~---------------------------------------------22~---------------------21~---------19~---------|
D|-------------------------------------------------------------------------------------------------| 
A|-------------------------------------------------------------------------------------------------|
D|-------------------------------------------------------------------------------------------------|
 |
 |String II
E|-------------------------------------------------------------------------------------------------| 
B|-15~---------18~---------17~---------------13----18~---------------------17~---------13~---------|
G|-x-----------x-----------x-----------------x-----x-----------------------x-----------x-----------|
D|-12~---------15~---------14~---------------10----15~---------------------14~---------10~---------| 
A|-------------------------------------------------------------------------------------------------|
D|-------------------------------------------------------------------------------------------------|


E|-------------------------------------------------------------------------------------------------| 
B|-------------------------------------------------------------------------------------------------|
G|-7~----------------------------------------------------------------------------------------------|
D|-7~----------------------------------------------------------------------------------------------| 
A|-5~----------------------------------------------------------------------------------------------|
D|-0~----------------------------------------------------------------------------------------------|
 |
 |
E|-17~---------------------------------------------------------------------------------------------| 
B|-x-----------------------------------------------15~---------------------------------------------|
G|-14~---------------------------------------------14~---------------------------------------------|
D|-------------------------------------------------12~---------------------------------------------| 
A|-------------------------------------------------------------------------------------------------|
D|-------------------------------------------------------------------------------------------------|
 |
 |
E|-------------------------------------------------------------------------------------------------| 
B|-10~---------------------------------------------------------------------------------------------|
G|-x-----------------------------------------------------------------------------------------------|
D|-7~----------------------------------------------------------------------------------------------| 
A|-------------------------------------------------------------------------------------------------|
D|-------------------------------------------------------------------------------------------------|



BREAK

Strings Only
E|-------------------------------------------------------------------------------------------------| 
B|-15~---------18~---------17~---------13~---------15~---------------------------------------------|
G|-x-----------x-----------x-----------x-----------x-----------------------------------------------|
D|-12~---------15~---------14~---------10~---------12~---------------------------------------------| 
A|-------------------------------------10~---------12~---------------------------------------------|
D|-------------------------------------------------------------------------------------------------|

Guitar
E|-------------------------------------------------------------------------------------------------| 
B|-------------------------------------------------------------------------------------------------|
G|-7~----------\--\--\--\--------------------------7~----------\--\--\--\--------------10/12-10\9--|
D|-7~----------\--\--\--\--------------------------7~----------\--\--\--\--------------x-----x-----| 
A|-5~----------\--\--\--\--------------------------5~----------\--\--\--\--------------8-/10-8-\7--|
D|-------------------------0-0-0-0-----------------------------------------0-0-0-0-----------------|
 |PM                       - - - -                                         - - - -
 |Strings
E|-------------------------------------20----------22----------------------------------------------| 
B|-15----------18----------17----------x-----------x-----------------------------------------------|
G|-x-----------x-----------x-----------17----------19----------------------------------------------|
D|-12----------15----------14----------------------------------------------------------------------| 
A|-------------------------------------------------------------------------------------------------|
D|-------------------------------------------------------------------------------------------------|
 |
 |
E|-------------------------------------------------------------------------------------------------| 
B|-15----------18----------20----------17----------15----------------------------------------------|
G|-x-----------x-----------x-----------x-----------x-----------------------------------------------|
D|-12----------15----------17----------14----------12----------------------------------------------| 
A|-------------------------------------------------------------------------------------------------|
D|-------------------------------------------------------------------------------------------------|



SWELL

Guitar
E|-------------------------------------------------------------------------------------------------| 
B|-------------------------------------------------------------------------------------------------|
G|-------------------------------------------------------------------------------------------------|
D|-7-----------7-----7-----------------7--7--7--7--7-----------7-----7-----------------------------| 
A|-5--5--5--5--5-----5-----5--5--5--5--5--5--5--5--5--5--5--5--5-----5-----5--5--5--5--5--5--5--5--|
D|-0--0--0--0--0-----0-----0--0--0--0--0--0--0--0--0--0--0--0--0-----0-----0--0--0--0--0--0--0--0--|
     -  -  -              -  -  -  -                 -  -  -              -  -  -  -  -  -  -  -

E|-------------------------------------------------------------------------------------------------| 
B|-------------------------------------------------------------------------------------------------|
G|-------------------------------------------------------------------------------------10----5-----|
D|-7-----------7-----7-----------------7--7--7--7--7-----------7-----7-----------------10----5-----| 
A|-5--5--5--5--5-----5-----5--5--5--5--5--5--5--5--5--5--5--5--5-----5-----5--5--5--5--8-----3-----|
D|-0--0--0--0--0-----0-----0--0--0--0--0--0--0--0--0--0--0--0--0-----0-----0--0--0--0--------------|
     -  -  -              -  -  -  -                 -  -  -              -  -  -  -            

Choir
2x
E|-------------------------------------------------------------------------------------------------| 
B|-15~---------18~---------17~---------13~---------15~---------------------------------------------|
G|-x-----------x-----------x-----------x-----------x-----------------------------------------------|
D|-12~---------15~---------14~---------10~---------12~---------------------------------------------| 
A|-------------------------------------------------------------------------------------------------|
D|-------------------------------------------------------------------------------------------------|



SOLO

Guitar I
E|-------13----------------------------------------------------------------------------------------| 
B|-13-15----15~----------------------------------------13---------13-------15--15-p13-13-h18-18p15-|
G|----------------------------------------10-10-12-14-------10-12----14----14--14-----14-----14----|
D|-------------------------------------------------------------------------------------------------| 
A|-------------------------------------------------------------------------------------------------|
D|-------------------------------------------------------------------------------------------------|

E|------------------------------------------------------------------------------------10-----------| 
B|-10----13p10h12p10--------------------------------(10)-------------------10~------------13v~-----|
G|-------------------12h13p12p10---------------------10--------------10-12-------------------------|
D|-------------------------------12-10b-(12)~------------12~---------------------------------------| 
A|-------------------------------------------------------------------------------------------------|
D|-------------------------------------------------------------------------------------------------|

Guitar II
2x
E|-------------------------------------------------------------------------------------------------| 
B|-------------------------------------------------------------------------------------------------|
G|-------------------------------------------------------------------------5~----------------------|
D|-0~----------------------------------------------3~----------------------5~----------------------| 
A|-0~----------------------------------------------3~----------------------3~----------------------|
D|-0~----------------------------------------------3~----------------------------------------------|



POST SOLO

Guitar
E|-------------------------------------------------------------------------------------------------| 
B|-------------------------------------------------------------------------------------------------|
G|-------------------------------------------------------------------------------------------------|
D|-------3-----3-----3-----------------3--3--3--3--------3-----3-----3-----------------------------| 
A|-3--3--3-----3-----3-----3--3--3--3--3--3--3--3--3--3--3-----3-----3-----3--3--3--3--3--3--3--3--|
D|-3--3--3--3--3-----3-----3--3--3--3--3--3--3--3--3--3--3--3--3-----3-----3--3--3--3--3--3--3--3--|
 PM-  -     -              -  -  -  -              -  -     -              -  -  -  -  -  -  -  -
 |Choir
E|-------------------------------------16~---------13~---------------------------------------------| 
B|-------------16~---------15~---------16~---------13~---------------------------------------------|
G|-17~---------13~---------12~---------------------10~---------------------------------------------|
D|-15~---------------------------------------------------------------------------------------------| 
A|-------------------------------------------------------------------------------------------------|
D|-------------------------------------------------------------------------------------------------|
 | 
 |Vocals (Tarja)
E|-------------------------------------------------------------------------------------------------| 
B|-------------------------------------16~---------13~---------------------------------------------|
G|-10~---------13~---------12~---------------------------------------------------------------------|
D|-------------------------------------------------------------------------------------------------| 
A|-------------------------------------------------------------------------------------------------|
D|-------------------------------------------------------------------------------------------------|
   Ne    -     mo          sai    -    ling        home

E|-------------------------------------------------------------------------------------------------| 
B|-------------------------------------------------------------------------------------------------|
G|-------------------------------------------------------------------------6~----------8~----------|
D|-------3-----3-----3-----------------3--3--3--3--------3-----3-----3-----6~----------8~----------| 
A|-3--3--3-----3-----3-----3--3--3--3--3--3--3--3--3--3--3-----3-----3-----4~----------6~----------|
D|-3--3--3--3--3-----3-----3--3--3--3--3--3--3--3--3--3--3--3--3-----3-----------------------------|
 PM-  -     -              -  -  -  -              -  -     -                                    
 |
E|-------------------------------------16~---------13~---------------------------------------------| 
B|-------------16~---------15~---------16~---------13~---------------------------------------------|
G|-17~---------13~---------12~---------------------10~---------------------------------------------|
D|-15~---------------------------------------------------------------------------------------------| 
A|-------------------------------------------------------------------------------------------------|
D|-------------------------------------------------------------------------------------------------|
 |
 |Vocals (Tarja)
E|----------------------------------------------------------13-16-13-------13----------------------| 
B|-------------------------------------16~---------13~---------------16-13----16-13----13~---------|
G|-10~---------13~---------12~------------------------------------------------------15-------------|
D|-------------------------------------------------------------------------------------------------| 
A|-------------------------------------------------------------------------------------------------|
D|-------------------------------------------------------------------------------------------------|
   Ne          mo          let         it          go          -      -      -      -  -


RE-ENTRY

Piano
E|-------------------------------------------------------------------------------------------------| 
B|----18----18--16--18--------18----18--16--18-----------------------------------------------------|
G|----------------------17----------------------13-------------10-12-13-12-------------12-13-15-13-|
D|----------------------------------------------------10-11-13----------------12-13-15-------------| 
A|-------------------------------------------------11----------------------13----------------------|
D|-------------------------------------------------------------------------------------------------|



FINAL CHORUS 4x

Vocals (Tarja)
E|-------------------------------------------------------------------------------------------------| 
B|-------18----16-18-------------18----16-18-------------16---/18-------16-------------------------|
G|-------------------------17----------------------13----------------------17----15----13---8------|
D|-------------------------------------------------------------------------------------------------| 
A|-------------------------------------------------------------------------------------------------|
D|-------------------------------------------------------------------------------------------------|
         Oh   how I        wish  For  soothing     rain  All   I      wish is    to    dream a   -
         My   loving       heart Lost in  the      dark  For   hope   I'd give   my     ev  ‘ry  -
         Oh   how I        wish  For  soothing     rain  All   I      wish is    to    dream a   - 
         Once and for      all   And   all for     once  Ne    mo       my name  for   ev   ver  -

E|-------| 
B|-------|
G|-10~---|
D|-------| 
A|-------|
D|-------|
   gain
   thing
   gain
   more

Guitar 2x
E|-------------------------------------------------------------------------------------------------| 
B|-------------------------------------------------------------------------------------------------|
G|-------------------------------------------------------------------------------------------------|
D|-3--3--3--3--3--3--3--3--3--3--3--3--3--3--3--3--1--1--1--1--1--1--1--1--1--1--1--1--1--1--1--1--|
A|-3--3--3--3--3--3--3--3--3--3--3--3--3--3--3--3--1--1--1--1--1--1--1--1--1--1--1--1--1--1--1--1--|
D|-3--3--3--3--3--3--3--3--3--3--3--3--3--3--3--3--1--1--1--1--1--1--1--1--1--1--1--1--1--1--1--1--|

E|-------------------------------------------------------------------------------------------------| 
B|-------------------------------------------------------------------------------------------------|
G|-------------------------------------------------------------------------8--8--8--8--8--8--8--8--|
D|-3--3--3--3--3--3--3--3--3--3--3--3--3--3--3--3--6--6--6--6--6--6--6--6--8--8--8--8--8--8--8--8--| 
A|-3--3--3--3--3--3--3--3--3--3--3--3--3--3--3--3--6--6--6--6--6--6--6--6--6--6--6--6--6--6--6--6--|
D|-3--3--3--3--3--3--3--3--3--3--3--3--3--3--3--3--6--6--6--6--6--6--6--6--------------------------|

Strings  2x
E|-------------------------------------------------------------------------------------------------| 
B|-18~---------21~---------20~---------------16----21~---------------------20~---------------------|
G|-x-----------x-----------x-----------------x-----x-----------------------x-----------------------|
D|-15~---------18~---------17~---------------13----18~---------------------17~---------------------| 
A|-------------------------------------------------------------------------------------------------|
D|-------------------------------------------------------------------------------------------------|

1st Ending
E|-------------------------------------------------20~---------------18\16-18~---------23~---------| 
B|-18~---------21~---------20~---------------16----x-----------------x-----x-----------x-----------|
G|-x-----------x-----------x-----------------x-----17~---------------15\13-15~---------20~---------|
D|-15~---------18~---------17~---------------13----------------------------------------------------| 
A|-------------------------------------------------------------------------------------------------|
D|-------------------------------------------------------------------------------------------------|

2nd Ending
E|-------------------------------------------23----25~------------16-18-20-18~---------------------| 
B|-18~---------21~---------20~---------------x-----x--------------x--x--x--x-----------------------|
G|-x-----------x-----------x-----------------20----22~------------13-15-17-15~---------------------|
D|-15~---------18~---------17~---------------------------------------------------------------------| 
A|-------------------------------------------------------------------------------------------------|
D|-------------------------------------------------------------------------------------------------|



OUTRO

Guitar 3x
E|-------------------------------------------------------------------------------------------------| 
B|-------------------------------------------------------------------------------------------------|
G|-------------------------------------------------------------------------------------------------|
D|-3--3--3--3--3--3--3--3--3--3--3--3--3--3--3--3--1--1--1--1--1--1--1--1--1--1--1--1--1--1--1--1--|
A|-3--3--3--3--3--3--3--3--3--3--3--3--3--3--3--3--1--1--1--1--1--1--1--1--1--1--1--1--1--1--1--1--|
D|-3--3--3--3--3--3--3--3--3--3--3--3--3--3--3--3--1--1--1--1--1--1--1--1--1--1--1--1--1--1--1--1--|

E|-------------------------------------------------------------------------------------------------| 
B|-------------------------------------------------------------------------------------------------|
G|-------------------------------------------------------------------------8--8--8--8--8--8--8--8--|
D|-3--3--3--3--3--3--3--3--3--3--3--3--3--3--3--3--6--6--6--6--6--6--6--6--8--8--8--8--8--8--8--8--| 
A|-3--3--3--3--3--3--3--3--3--3--3--3--3--3--3--3--6--6--6--6--6--6--6--6--6--6--6--6--6--6--6--6--|
D|-3--3--3--3--3--3--3--3--3--3--3--3--3--3--3--3--6--6--6--6--6--6--6--6--------------------------|


Piano
2x
E|-------------------------------------------------------------------------------------------------| 
B|----18----18--16--18--------18----18--16--18-----------16----16--18------------------------------|
G|----------------------17----------------------13---------------------17--15----13----12----------|
D|-------------------------------------------------------------------------------------------13----| 
A|-------------------------------------------------------------------------------------------------|
D|-------------------------------------------------------------------------------------------------|

E|-------| 
B|-------|
G|-------|
D|-15~---| 
A|-------|
D|-------|

Before the Piano Repeats
E|-------------------------|----------|
B|-------------------16----|-16\13~---|
G|-17----15----13----------|----------|
D|-------------------------|----------|
A|-------------------------|----------|
D|-------------------------|----------|
   Name  For   ev -  ver     mo-re

Strings 2x
E|-------------------------------------------------------------------------------------------------| 
B|-18~---------21~---------20~---------16~---------21~---------------------20~---------------18-16-|
G|-x-----------x-----------x-----------x-----------x-----------------------x-----------------x--x--|
D|-15~---------18~---------17~---------13~---------18~---------------------17~---------------15-13-| 
A|-------------------------------------------------------------------------------------------------|
D|-------------------------------------------------------------------------------------------------|

E|-------------------------------------------------20~---------------18\16-18~---------------------| 
B|-18~---------21~---------20~---------16~---------x-----------------x-----x-----------------------|
G|-x-----------x-----------x-----------x-----------17~---------------15\13-15~---------------------|
D|-15~---------18~---------17~---------13~---------------------------------------------------------| 
A|-------------------------------------------------------------------------------------------------|
D|-------------------------------------------------------------------------------------------------|

And yer done. Have fun.

            
            
Suggest correction
Creating personal tab
Creating personal tab
You can edit any tab online and save it as your Personal.

You can edit, replace or remove any tab part or add personal notes – all changes will be seen only by you.

Personal tabs can be accessed anytime from any device, even offline.
Learn more »
comments
print report bad tab
3 comments total.
0 reply
00bk00bk 10 Mar 23, 2009 12:19 PM

man this is a really good tab, the only thing is that the solo is a little short but im not positive about that.

0 reply
st017 1,220 Apr 04, 2009 10:49 PM

The song was not in C Standard. It is in 1 step down or D. Also playing it this way does not allow you to actually play all of the notes he plays in some chords.

0 reply
the_messenger66 1,322 Apr 05, 2009 01:13 PM

yeah, my bad. I meant D standard....

guest
You may want to rate the tab now too:
select rating
Wanna post a correction for this tab? Suggest correction