Oops, an error
Loading. Please wait.

Sahara tab

version 1
version 1

Whole song

Interactive

Video

  • For the original version from the "Dark Passion Pl... Show more
18,392 views 1 this week
5 commentsread comments
1 2 3 4 5
x 5
add to favorites
×
Save as Personal and add changes to this tab that will be seen only by you. Learn more ›
×
You can save this tab as Personal to edit and correct it or add notes. All changes will be seen only by you. Learn more »
launch autoscroll
font size
0
reset
how to read this tab
guitar tuner
edit
Autoscroll
slow
fast
+/-
esc
set tempo
stop
Band: Nightwish
Song: Sahara



Guitar 1:

                                       PH       PH        PH                 
                                       S  S S   E   S S   E   S S S S S S S  
D||-------|-------|-------|-------|-----------------------------------------|
A||-------|-------|-------|-------|-----------------------------------------|
F||-------|-------|-------|-------|-----------------------------------------|
C||-------|-------|-------|-------|---------0-<>2~--------------------0-----|
G||-------|-------|-------|-------|--<>0~-------------2-<>3~----0-2-3---3-2-|
D||-------|-------|-------|-------|-----------------------------------------|


                    PM   PM   PM          PH       PH        PH                 
  S S S S S S S S S S  S S  S S  S S      S  S S   E   S S   E   S S S S S S S  
-------------------------------------|-----------------------------------------|
-------------------------------------|-----------------------------------------|
-------------------------------------|-----------------------------------------|
--------0-2-0-----0------------------|---------0-<>2~--------------------0-----|
------3-------3-2------3----2----0-2-|--<>0~-------------2-<>3~----0-2-3---3-2-|
--3-----------------3----3----3------|-----------------------------------------|


                    PM   PM   PM          PH       PH        PH                 
  S S S S S S S S S S  S S  S S  S S      S  S S   E   S S   E   S S S S S S S  
-------------------------------------|-----------------------------------------|
-------------------------------------|-----------------------------------------|
-------------------------------------|-----------------------------------------|
--------0-2-0-----0------------------|---------0-<>2~--------------------0-----|
------3-------3-2------3----2----0-2-|--<>0~-------------2-<>3~----0-2-3---3-2-|
--3-----------------3----3----3------|-----------------------------------------|


                    PM   PM   PM          PH       PH        PH                 
  S S S S S S S S S S  S S  S S  S S      S  S S   E   S S   E   S S S S S S S  
-------------------------------------|-----------------------------------------|
-------------------------------------|-----------------------------------------|
-------------------------------------|-----------------------------------------|
--------0-2-0-----0------------------|---------0-<>2~--------------------0-----|
------3-------3-2------3----2----0-2-|--<>0~-------------2-<>3~----0-2-3---3-2-|
--3-----------------3----3----3------|-----------------------------------------|


                    PM   PM   PM                                              
  S S S S S S S S S S  S S  S S  S S    W                   W                 
-------------------------------------|-------------------|-------------------|
-------------------------------------|-------------------|-------------------|
-------------------------------------|-------------------|-------------------|
--------0-2-0-----0------------------|-------------------|-------------------|
------3-------3-2------3----2----0-2-|--2----------------|--L----------------|
--3-----------------3----3----3------|--0----------------|--L----------------|


  W                   W                   Q     Q     Q    Q     
-------------------|-------------------|------------------------|
-------------------|-------------------|------------------------|
-------------------|-------------------|--9----11----12----9----|
-------------------|-------------------|------------------------|
--L----------------|--L----------------|------------------------|
--L----------------|--L----------------|------------------------|


   H.             Q        W                   W                 
-----------------------|--------------------|-------------------|
-----------------------|--------------------|-------------------|
--10------------/19----|--16----------------|--L----------------|
-----------------------|--------------------|-------------------|
-----------------------|--------------------|-------------------|
-----------------------|--------------------|-------------------|


  Q     Q     Q.      S S    Q.      Q      Q     E   
--------------------------|---------12p----11--------|
--------------------------|----------------------13--|
--9----11----12------11-9-|--7-----------------------|
--------------------------|--------------------------|
--------------------------|--------------------------|
--------------------------|--------------------------|


                                                     PM PM PM PM PM PM          
     E   E   H.               W                   E  E  E  E  E  S  S  S S S S  
--------15--14------------|---L----------------|-------------------------------|
--<>12--------------------|--------------------|-------------------------------|
--------------------------|--------------------|-------------------------------|
--------------------------|--------------------|---------------------------3---|
--------------------------|--------------------|--2--------------2--2--5-2-1-2-|
--------------------------|--------------------|--0--0--0--0--0--0--0--3-0---0-|


     PM PM PM PM PM PM               PM PM PM PM PM PM          
  E  E  E  E  E  S  S  S S S S    E  E  E  E  E  S  S  S S S S  
-------------------------------|-------------------------------|
-------------------------------|-------------------------------|
-------------------------------|-------------------------------|
---------------------------3---|---------------------------3---|
--2--------------2--2--5-2-1-2-|--2--------------2--2--5-2-1-2-|
--0--0--0--0--0--0--0--3-0---0-|--0--0--0--0--0--0--0--3-0---0-|


     PM PM PM PM PM PM            PM PM PM PM PM PM          
  E  E  E  E  E  S  S  Q       E  E  E  E  E  S  S  S S S S  
----------------------------|-------------------------------|
----------------------------|-------------------------------|
-----------------------8----|-------------------------------|
-----------------------8----|---------------------------3---|
--2--------------2--2--6----|--2--------------2--2--5-2-1-2-|
--0--0--0--0--0--0--0-------|--0--0--0--0--0--0--0--3-0---0-|


     PM PM PM PM PM PM               PM PM PM PM PM PM          
  E  E  E  E  E  S  S  S S S S    E  E  E  E  E  S  S  S S S S  
-------------------------------|-------------------------------|
-------------------------------|-------------------------------|
-------------------------------|-------------------------------|
---------------------------3---|---------------------------3---|
--2--------------2--2--5-2-1-2-|--2--------------2--2--5-2-1-2-|
--0--0--0--0--0--0--0--3-0---0-|--0--0--0--0--0--0--0--3-0---0-|


     PM PM PM PM PM PM            PM PM PM PM PM PM          
  E  E  E  E  E  S  S  Q       E  E  E  E  E  S  S  S S S S  
----------------------------|-------------------------------|
----------------------------|-------------------------------|
-----------------------8----|-------------------------------|
-----------------------8----|---------------------------3---|
--2--------------2--2--6----|--2--------------2--2--5-2-1-2-|
--0--0--0--0--0--0--0-------|--0--0--0--0--0--0--0--3-0---0-|


     PM PM PM PM PM PM               PM PM PM PM PM PM          
  E  E  E  E  E  S  S  S S S S    E  E  E  E  E  S  S  S S S S  
-------------------------------|-------------------------------|
-------------------------------|-------------------------------|
-------------------------------|-------------------------------|
---------------------------3---|---------------------------3---|
--2--------------2--2--5-2-1-2-|--2--------------2--2--5-2-1-2-|
--0--0--0--0--0--0--0--3-0---0-|--0--0--0--0--0--0--0--3-0---0-|


     PM PM PM PM PM PM PM PM PM PM                      PM PM PM PM PM PM  
  E  E  E  S  S  E  S  S  E  S  S     S S S S E  S S E  S  S  S  S  S  S   
-----------------------------------|--------------------------------------|
-----------------------------------|--------------------------------------|
-----------------------------------|--------------------------------------|
-----------------------------------|--------------------------------------|
--2--------------------------------|--5-5-5-5----5-5----5--5--7--8--7--3--|
--0--0--0--0--0--0--0--0--0--0--0--|--3-3-3-3----3-3----3--3--5--6--5--1--|


                    PM PM                           PM PM PM PM PM PM  
  S S S S E  S S E  S  S  Q       S S S S E  S S E  S  S  S  S  S  S   
-------------------------------|--------------------------------------|
-------------------------------|--------------------------------------|
-------------------------------|--------------------------------------|
-------------------------------|--------------------------------------|
--5-5-5-5----5-5----5--5--3----|--5-5-5-5----5-5----5--5--7--8--7--3--|
--3-3-3-3----3-3----3--3--1----|--3-3-3-3----3-3----3--3--5--6--5--1--|


                    PM PM                           PM PM PM PM PM PM  
  S S S S E  S S E  S  S  Q       S S S S E  S S E  S  S  S  S  S  S   
-------------------------------|--------------------------------------|
-------------------------------|--------------------------------------|
--------------------------8----|--------------------------------------|
--------------------------8----|--------------------------------------|
--5-5-5-5----5-5----5--5--6----|--5-5-5-5----5-5----5--5--7--8--7--3--|
--3-3-3-3----3-3----3--3-------|--3-3-3-3----3-3----3--3--5--6--5--1--|


                    PM PM                           PM PM PM PM PM PM  
  S S S S E  S S E  S  S  Q       S S S S E  S S E  S  S  S  S  S  S   
-------------------------------|--------------------------------------|
-------------------------------|--------------------------------------|
-------------------------------|--------------------------------------|
-------------------------------|--------------------------------------|
--5-5-5-5----5-5----5--5--3----|--5-5-5-5----5-5----5--5--7--8--7--3--|
--3-3-3-3----3-3----3--3--1----|--3-3-3-3----3-3----3--3--5--6--5--1--|


                           PM PM PM PM PM PM          
   H        H           E  E  E  E  E  S  S  S S S S  
---------------------|-------------------------------|
---------------------|-------------------------------|
--10--------8--------|-------------------------------|
--10--------8--------|---------------------------3---|
---8--------6--------|--2--------------2--2--5-2-1-2-|
---------------------|--0--0--0--0--0--0--0--3-0---0-|


     PM PM PM PM PM PM               PM PM PM PM PM PM          
  E  E  E  E  E  S  S  S S S S    E  E  E  E  E  S  S  S S S S  
-------------------------------|-------------------------------|
-------------------------------|-------------------------------|
-------------------------------|-------------------------------|
---------------------------3---|---------------------------3---|
--2--------------2--2--5-2-1-2-|--2--------------2--2--5-2-1-2-|
--0--0--0--0--0--0--0--3-0---0-|--0--0--0--0--0--0--0--3-0---0-|


     PM PM PM PM PM PM            PM PM PM PM PM PM          
  E  E  E  E  E  S  S  Q       E  E  E  E  E  S  S  S S S S  
----------------------------|-------------------------------|
----------------------------|-------------------------------|
-----------------------8----|-------------------------------|
-----------------------8----|---------------------------3---|
--2--------------2--2--6----|--2--------------2--2--5-2-1-2-|
--0--0--0--0--0--0--0-------|--0--0--0--0--0--0--0--3-0---0-|


     PM PM PM PM PM PM               PM PM PM PM PM PM          
  E  E  E  E  E  S  S  S S S S    E  E  E  E  E  S  S  S S S S  
-------------------------------|-------------------------------|
-------------------------------|-------------------------------|
-------------------------------|-------------------------------|
---------------------------3---|---------------------------3---|
--2--------------2--2--5-2-1-2-|--2--------------2--2--5-2-1-2-|
--0--0--0--0--0--0--0--3-0---0-|--0--0--0--0--0--0--0--3-0---0-|


     PM PM PM PM PM PM PM PM PM PM                      PM PM PM PM PM PM  
  E  E  E  S  S  E  S  S  E  S  S     S S S S E  S S E  S  S  S  S  S  S   
-----------------------------------|--------------------------------------|
-----------------------------------|--------------------------------------|
-----------------------------------|--------------------------------------|
-----------------------------------|--------------------------------------|
--2--------------------------------|--5-5-5-5----5-5----5--5--7--8--7--3--|
--0--0--0--0--0--0--0--0--0--0--0--|--3-3-3-3----3-3----3--3--5--6--5--1--|


                    PM PM                           PM PM PM PM PM PM  
  S S S S E  S S E  S  S  Q       S S S S E  S S E  S  S  S  S  S  S   
-------------------------------|--------------------------------------|
-------------------------------|--------------------------------------|
-------------------------------|--------------------------------------|
-------------------------------|--------------------------------------|
--5-5-5-5----5-5----5--5--3----|--5-5-5-5----5-5----5--5--7--8--7--3--|
--3-3-3-3----3-3----3--3--1----|--3-3-3-3----3-3----3--3--5--6--5--1--|


                    PM PM                           PM PM PM PM PM PM  
  S S S S E  S S E  S  S  Q       S S S S E  S S E  S  S  S  S  S  S   
-------------------------------|--------------------------------------|
-------------------------------|--------------------------------------|
--------------------------8----|--------------------------------------|
--------------------------8----|--------------------------------------|
--5-5-5-5----5-5----5--5--6----|--5-5-5-5----5-5----5--5--7--8--7--3--|
--3-3-3-3----3-3----3--3-------|--3-3-3-3----3-3----3--3--5--6--5--1--|


                    PM PM                           PM PM PM PM PM PM  
  S S S S E  S S E  S  S  Q       S S S S E  S S E  S  S  S  S  S  S   
-------------------------------|--------------------------------------|
-------------------------------|--------------------------------------|
-------------------------------|--------------------------------------|
-------------------------------|--------------------------------------|
--5-5-5-5----5-5----5--5--3----|--5-5-5-5----5-5----5--5--7--8--7--3--|
--3-3-3-3----3-3----3--3--1----|--3-3-3-3----3-3----3--3--5--6--5--1--|


   H        H                                                         
---------------------|-----------|-----------|-----------|-----------|
---------------------|-----------|-----------|-----------|-----------|
--10--------8--------|-----------|-----------|-----------|-----------|
--10--------8--------|-----------|-----------|-----------|-----------|
---8--------6--------|-----------|-----------|-----------|-----------|
---------------------|-----------|-----------|-----------|-----------|


-----------|-----------|-----------|-----------|-----------|-----------|
-----------|-----------|-----------|-----------|-----------|-----------|
-----------|-----------|-----------|-----------|-----------|-----------|
-----------|-----------|-----------|-----------|-----------|-----------|
-----------|-----------|-----------|-----------|-----------|-----------|
-----------|-----------|-----------|-----------|-----------|-----------|


                           |----3---|   
              H.           E    E   E   
-----------|---------------------------|
-----------|---------------------------|
-----------|---------------------------|
-----------|---------------------------|
-----------|---------------2S--15S--2--|
-----------|---------------0S--13S--0--|


     PM PM PM   PM PM PM PM PM               
  E  S  S  S  S S  S  S  S  S  S S S S   S   
--------------------------------------------|
--------------------------------------------|
--------------------------------------------|
--------------------------------------------|
--2--2--2--2----2--2--2--2--2----5-2-8-<>6~-|
--0--0--0--0----0--0--0--0--0----3-0-6------|


            PM   PM PM PM PM PM   PM PM PM PM  
    E   S S S  S S  S  S  S  S  S S  S  S  S   
----------------------------------------------|
----------------------------------------------|
----------------------------------------------|
----------------------------------------------|
--<>L~--2-2-2----2--2--2--2--2----2--2--2--2--|
--------0-0-0----0--0--0--0--0----0--0--0--0--|


  PM   PM PM PM   PM PM PM PM PM              PM   PM PM PM   PM PM           
  S  S S  S  S  S S  S  S  S  S  S S S S S    S  S S  S  S  S S  S  H         
-------------------------------------------|---------------------------------|
-------------------------------------------|---------------------------------|
-------------------------------------------|---------------------------------|
-------------------------------------------|------------------------2--------|
--2----2--2--2----2--2--2--2--2----5-2-8-2-|--2----2--2--2----2--2--2--------|
--0----0--0--0----0--0--0--0--0----3-0-6-0-|--0----0--0--0----0--0--0--------|


     PM PM PM   PM PM PM PM PM               
  E  S  S  S  S S  S  S  S  S  S S S S   S   
--------------------------------------------|
--------------------------------------------|
--------------------------------------------|
--------------------------------------------|
--2--2--2--2----2--2--2--2--2----5-2-8-<>6~-|
--0--0--0--0----0--0--0--0--0----3-0-6------|


            PM   PM PM PM PM PM   PM PM PM PM  
    E   S S S  S S  S  S  S  S  S S  S  S  S   
----------------------------------------------|
----------------------------------------------|
----------------------------------------------|
----------------------------------------------|
--<>L~--2-2-2----2--2--2--2--2----2--2--2--2--|
--------0-0-0----0--0--0--0--0----0--0--0--0--|


  PM   PM PM PM   PM PM PM PM PM                           PM   PM PM           
  S  S S  S  S  S S  S  S  S  S  S S S S   S       E   S S S  S S  S  H         
----------------------------------------------|--------------------------------|
----------------------------------------------|--------------------------------|
----------------------------------------------|--------------------------------|
----------------------------------------------|-----------------------2--------|
--2----2--2--2----2--2--2--2--2----5-2-8-<>6~-|--<>L~--2-2-2----2--2--2--------|
--0----0--0--0----0--0--0--0--0----3-0-6------|--------0-0-0----0--0--0--------|


  W                   W                                                         
-------------------|-------------------|-------------------|-------------------|
-------------------|-------------------|-------------------|-------------------|
--2----------------|--L----------------|-------------------|-------------------|
--2----------------|--L----------------|-------------------|-------------------|
--0----------------|--L----------------|-------------------|-------------------|
-------------------|-------------------|-------------------|-------------------|


-------------------|-------------------|-------------------|-------------------|
-------------------|-------------------|-------------------|-------------------|
-------------------|-------------------|-------------------|-------------------|
-------------------|-------------------|-------------------|-------------------|
-------------------|-------------------|-------------------|-------------------|
-------------------|-------------------|-------------------|-------------------|


-------|-------|-------|-------|-------|-------|-------|-------|
-------|-------|-------|-------|-------|-------|-------|-------|
-------|-------|-------|-------|-------|-------|-------|-------|
-------|-------|-------|-------|-------|-------|-------|-------|
-------|-------|-------|-------|-------|-------|-------|-------|
-------|-------|-------|-------|-------|-------|-------|-------|


                    PM PM PM PM PM PM                      PM PM       
  S S S S E  S S E  S  S  S  S  S  S     S S S S E  S S E  S  S  Q     
--------------------------------------|-------------------------------|
--------------------------------------|-------------------------------|
--------------------------------------|-------------------------------|
--------------------------------------|-------------------------------|
--5-5-5-5----5-5----5--5--7--8--7--3--|--5-5-5-5----5-5----5--5--3----|
--3-3-3-3----3-3----3--3--5--6--5--1--|--3-3-3-3----3-3----3--3--1----|


                    PM PM PM PM PM PM                      PM PM       
  S S S S E  S S E  S  S  S  S  S  S     S S S S E  S S E  S  S  Q     
--------------------------------------|-------------------------------|
--------------------------------------|-------------------------------|
--------------------------------------|--------------------------8----|
--------------------------------------|--------------------------8----|
--5-5-5-5----5-5----5--5--7--8--7--3--|--5-5-5-5----5-5----5--5--6----|
--3-3-3-3----3-3----3--3--5--6--5--1--|--3-3-3-3----3-3----3--3-------|


                    PM PM PM PM PM PM                      PM PM       
  S S S S E  S S E  S  S  S  S  S  S     S S S S E  S S E  S  S  Q     
--------------------------------------|-------------------------------|
--------------------------------------|-------------------------------|
--------------------------------------|-------------------------------|
--------------------------------------|-------------------------------|
--5-5-5-5----5-5----5--5--7--8--7--3--|--5-5-5-5----5-5----5--5--3----|
--3-3-3-3----3-3----3--3--5--6--5--1--|--3-3-3-3----3-3----3--3--1----|


                    PM PM PM PM PM PM                        
  S S S S E  S S E  S  S  S  S  S  S      H        H         
--------------------------------------|---------------------|
--------------------------------------|---------------------|
--------------------------------------|--10--------8--------|
--------------------------------------|--10--------8--------|
--5-5-5-5----5-5----5--5--7--8--7--3--|---8--------6--------|
--3-3-3-3----3-3----3--3--5--6--5--1--|---------------------|


                    PM PM PM PM PM PM                      PM PM       
  S S S S E  S S E  S  S  S  S  S  S     S S S S E  S S E  S  S  Q     
--------------------------------------|-------------------------------|
--------------------------------------|-------------------------------|
--------------------------------------|-------------------------------|
--------------------------------------|-------------------------------|
--5-5-5-5----5-5----5--5--7--8--7--3--|--5-5-5-5----5-5----5--5--3----|
--3-3-3-3----3-3----3--3--5--6--5--1--|--3-3-3-3----3-3----3--3--1----|


                    PM PM PM PM PM PM                      PM PM       
  S S S S E  S S E  S  S  S  S  S  S     S S S S E  S S E  S  S  Q     
--------------------------------------|-------------------------------|
--------------------------------------|-------------------------------|
--------------------------------------|--------------------------8----|
--------------------------------------|--------------------------8----|
--5-5-5-5----5-5----5--5--7--8--7--3--|--5-5-5-5----5-5----5--5--6----|
--3-3-3-3----3-3----3--3--5--6--5--1--|--3-3-3-3----3-3----3--3-------|


                    PM PM PM PM PM PM                      PM PM       
  S S S S E  S S E  S  S  S  S  S  S     S S S S E  S S E  S  S  Q     
--------------------------------------|-------------------------------|
--------------------------------------|-------------------------------|
--------------------------------------|-------------------------------|
--------------------------------------|-------------------------------|
--5-5-5-5----5-5----5--5--7--8--7--3--|--5-5-5-5----5-5----5--5--3----|
--3-3-3-3----3-3----3--3--5--6--5--1--|--3-3-3-3----3-3----3--3--1----|


                    PM PM PM PM PM PM                        
  S S S S E  S S E  S  S  S  S  S  S      H        H         
--------------------------------------|---------------------|
--------------------------------------|---------------------|
--------------------------------------|--10--------8--------|
--------------------------------------|--10--------8--------|
--5-5-5-5----5-5----5--5--7--8--7--3--|---8--------6--------|
--3-3-3-3----3-3----3--3--5--6--5--1--|---------------------|


                    PM PM PM PM PM PM                      PM PM       
  S S S S E  S S E  S  S  S  S  S  S     S S S S E  S S E  S  S  Q     
--------------------------------------|-------------------------------|
--------------------------------------|-------------------------------|
--------------------------------------|-------------------------------|
--------------------------------------|-------------------------------|
--5-5-5-5----5-5----5--5--7--8--7--3--|--5-5-5-5----5-5----5--5--3----|
--3-3-3-3----3-3----3--3--5--6--5--1--|--3-3-3-3----3-3----3--3--1----|


                    PM PM PM PM PM PM                      PM PM       
  S S S S E  S S E  S  S  S  S  S  S     S S S S E  S S E  S  S  Q     
--------------------------------------|-------------------------------|
--------------------------------------|-------------------------------|
--------------------------------------|--------------------------8----|
--------------------------------------|--------------------------8----|
--5-5-5-5----5-5----5--5--7--8--7--3--|--5-5-5-5----5-5----5--5--6----|
--3-3-3-3----3-3----3--3--5--6--5--1--|--3-3-3-3----3-3----3--3-------|


                    PM PM PM PM PM PM                      PM PM       
  S S S S E  S S E  S  S  S  S  S  S     S S S S E  S S E  S  S  Q     
--------------------------------------|-------------------------------|
--------------------------------------|-------------------------------|
--------------------------------------|-------------------------------|
--------------------------------------|-------------------------------|
--5-5-5-5----5-5----5--5--7--8--7--3--|--5-5-5-5----5-5----5--5--3----|
--3-3-3-3----3-3----3--3--5--6--5--1--|--3-3-3-3----3-3----3--3--1----|


                    PM PM PM PM PM PM                        
  S S S S E  S S E  S  S  S  S  S  S      H        H         
--------------------------------------|---------------------|
--------------------------------------|---------------------|
--------------------------------------|--10--------8--------|
--------------------------------------|--10--------8--------|
--5-5-5-5----5-5----5--5--7--8--7--3--|---8--------6--------|
--3-3-3-3----3-3----3--3--5--6--5--1--|---------------------|


                    PM PM PM PM PM PM                      PM PM       
  S S S S E  S S E  S  S  S  S  S  S     S S S S E  S S E  S  S  Q     
--------------------------------------|-------------------------------|
--------------------------------------|-------------------------------|
--------------------------------------|-------------------------------|
--------------------------------------|-------------------------------|
--5-5-5-5----5-5----5--5--7--8--7--3--|--5-5-5-5----5-5----5--5--3----|
--3-3-3-3----3-3----3--3--5--6--5--1--|--3-3-3-3----3-3----3--3--1----|


                    PM PM PM PM PM PM                      PM PM       
  S S S S E  S S E  S  S  S  S  S  S     S S S S E  S S E  S  S  Q     
--------------------------------------|-------------------------------|
--------------------------------------|-------------------------------|
--------------------------------------|--------------------------8----|
--------------------------------------|--------------------------8----|
--5-5-5-5----5-5----5--5--7--8--7--3--|--5-5-5-5----5-5----5--5--6----|
--3-3-3-3----3-3----3--3--5--6--5--1--|--3-3-3-3----3-3----3--3-------|


                    PM PM PM PM PM PM                      PM PM       
  S S S S E  S S E  S  S  S  S  S  S     S S S S E  S S E  S  S  Q     
--------------------------------------|-------------------------------|
--------------------------------------|-------------------------------|
--------------------------------------|-------------------------------|
--------------------------------------|-------------------------------|
--5-5-5-5----5-5----5--5--7--8--7--3--|--5-5-5-5----5-5----5--5--3----|
--3-3-3-3----3-3----3--3--5--6--5--1--|--3-3-3-3----3-3----3--3--1----|


                    PM PM PM PM PM PM                                     
  S S S S E  S S E  S  S  S  S  S  S      H        H                      
--------------------------------------|---------------------|-----------||
--------------------------------------|---------------------|-----------||
--------------------------------------|--10--------8--------|-----------||
--------------------------------------|--10--------8--------|-----------||
--5-5-5-5----5-5----5--5--7--8--7--3--|---8--------6--------|-----------||
--3-3-3-3----3-3----3--3--5--6--5--1--|---------------------|-----------||









Guitar 2:

                                     S S S E  S S E  S S S S S S S  
D||-------|-------|-------|-------|--------0-----------------------|
A||-------|-------|-------|-------|------3------0-1------0-1-3-1-0-|
F||-------|-------|-------|-------|--2-----------------2-----------|
C||-------|-------|-------|-------|----2------2------2-------------|
G||-------|-------|-------|-------|--------------------------------|
D||-------|-------|-------|-------|--------------------------------|


  S S S S S S S S S S S S S S S S    S S S E  S S E  S S S S S S S  
----------0-----------------------|--------0-----------------------|
------1-3---3-1-0-3---1---0-----0-|------3------0-1------0-1-3-1-0-|
--0-----------------0---0---0-2---|--2-----------------2-----------|
----3-----------------------------|----2------2------2-------------|
----------------------------------|--------------------------------|
----------------------------------|--------------------------------|


  S S S S S S S S S S S S S S S S    S S S E  S S E  S S S S S S S  
----------0-----------------------|--------0-----------------------|
------1-3---3-1-0-3---1---0-----0-|------3------0-1------0-1-3-1-0-|
--0-----------------0---0---0-2---|--2-----------------2-----------|
----3-----------------------------|----2------2------2-------------|
----------------------------------|--------------------------------|
----------------------------------|--------------------------------|


  S S S S S S S S S S S S S S S S    S S S E  S S E  S S S S S S S  
----------0-----------------------|--------0-----------------------|
------1-3---3-1-0-3---1---0-----0-|------3------0-1------0-1-3-1-0-|
--0-----------------0---0---0-2---|--2-----------------2-----------|
----3-----------------------------|----2------2------2-------------|
----------------------------------|--------------------------------|
----------------------------------|--------------------------------|


  S S S S S S S S S S S S S S S S                                               
----------0-----------------------|----|----|----|----|----|----|----|----|----|
------1-3---3-1-0-3---1---0-------|----|----|----|----|----|----|----|----|----|
--0-----------------0---0---0-2-0-|----|----|----|----|----|----|----|----|----|
----3-----------------------------|----|----|----|----|----|----|----|----|----|
----------------------------------|----|----|----|----|----|----|----|----|----|
----------------------------------|----|----|----|----|----|----|----|----|----|


----|----|----|---------------|---------------|---------------|---------------|
----|----|----|---------------|---------------|---------------|---------------|
----|----|----|---------------|---------------|---------------|---------------|
----|----|----|---------------|---------------|---------------|---------------|
----|----|----|---------------|---------------|---------------|---------------|
----|----|----|---------------|---------------|---------------|---------------|


---------------|---------------|---------------|---------------|-------|
---------------|---------------|---------------|---------------|-------|
---------------|---------------|---------------|---------------|-------|
---------------|---------------|---------------|---------------|-------|
---------------|---------------|---------------|---------------|-------|
---------------|---------------|---------------|---------------|-------|


---------------|---------------|---------------|---------------|---------------|
---------------|---------------|---------------|---------------|---------------|
---------------|---------------|---------------|---------------|---------------|
---------------|---------------|---------------|---------------|---------------|
---------------|---------------|---------------|---------------|---------------|
---------------|---------------|---------------|---------------|---------------|


---------------|---------------|-------|-------|-------|-------|-------|-------|
---------------|---------------|-------|-------|-------|-------|-------|-------|
---------------|---------------|-------|-------|-------|-------|-------|-------|
---------------|---------------|-------|-------|-------|-------|-------|-------|
---------------|---------------|-------|-------|-------|-------|-------|-------|
---------------|---------------|-------|-------|-------|-------|-------|-------|


-------|-------|-------|-------|-------|-------|---------------|---------------|
-------|-------|-------|-------|-------|-------|---------------|---------------|
-------|-------|-------|-------|-------|-------|---------------|---------------|
-------|-------|-------|-------|-------|-------|---------------|---------------|
-------|-------|-------|-------|-------|-------|---------------|---------------|
-------|-------|-------|-------|-------|-------|---------------|---------------|


---------------|---------------|-------|-------|-------|-------|-------|-------|
---------------|---------------|-------|-------|-------|-------|-------|-------|
---------------|---------------|-------|-------|-------|-------|-------|-------|
---------------|---------------|-------|-------|-------|-------|-------|-------|
---------------|---------------|-------|-------|-------|-------|-------|-------|
---------------|---------------|-------|-------|-------|-------|-------|-------|


-------|-------|-------|-------|-------|-------|-------|-------|-------|-------|
-------|-------|-------|-------|-------|-------|-------|-------|-------|-------|
-------|-------|-------|-------|-------|-------|-------|-------|-------|-------|
-------|-------|-------|-------|-------|-------|-------|-------|-------|-------|
-------|-------|-------|-------|-------|-------|-------|-------|-------|-------|
-------|-------|-------|-------|-------|-------|-------|-------|-------|-------|


-------|-------|-------|-------|-------|-------|-------|-------|-------|-------|
-------|-------|-------|-------|-------|-------|-------|-------|-------|-------|
-------|-------|-------|-------|-------|-------|-------|-------|-------|-------|
-------|-------|-------|-------|-------|-------|-------|-------|-------|-------|
-------|-------|-------|-------|-------|-------|-------|-------|-------|-------|
-------|-------|-------|-------|-------|-------|-------|-------|-------|-------|


-------|-------|-------|-------|-------|-------|-------|-------|-------|-------|
-------|-------|-------|-------|-------|-------|-------|-------|-------|-------|
-------|-------|-------|-------|-------|-------|-------|-------|-------|-------|
-------|-------|-------|-------|-------|-------|-------|-------|-------|-------|
-------|-------|-------|-------|-------|-------|-------|-------|-------|-------|
-------|-------|-------|-------|-------|-------|-------|-------|-------|-------|


-------|-------|-------|-------|---------------|---------------|---------------|
-------|-------|-------|-------|---------------|---------------|---------------|
-------|-------|-------|-------|---------------|---------------|---------------|
-------|-------|-------|-------|---------------|---------------|---------------|
-------|-------|-------|-------|---------------|---------------|---------------|
-------|-------|-------|-------|---------------|---------------|---------------|


---------------|-------|-------|-------|-------|---------------|---------------|
---------------|-------|-------|-------|-------|---------------|---------------|
---------------|-------|-------|-------|-------|---------------|---------------|
---------------|-------|-------|-------|-------|---------------|---------------|
---------------|-------|-------|-------|-------|---------------|---------------|
---------------|-------|-------|-------|-------|---------------|---------------|


---------------|---------------|-------|-------|-------|-------|---------------|
---------------|---------------|-------|-------|-------|-------|---------------|
---------------|---------------|-------|-------|-------|-------|---------------|
---------------|---------------|-------|-------|-------|-------|---------------|
---------------|---------------|-------|-------|-------|-------|---------------|
---------------|---------------|-------|-------|-------|-------|---------------|


---------------|---------------|---------------|-------|-------|-------|-------|
---------------|---------------|---------------|-------|-------|-------|-------|
---------------|---------------|---------------|-------|-------|-------|-------|
---------------|---------------|---------------|-------|-------|-------|-------|
---------------|---------------|---------------|-------|-------|-------|-------|
---------------|---------------|---------------|-------|-------|-------|-------|


---------------|---------------|---------------|---------------|-------|-------|
---------------|---------------|---------------|---------------|-------|-------|
---------------|---------------|---------------|---------------|-------|-------|
---------------|---------------|---------------|---------------|-------|-------|
---------------|---------------|---------------|---------------|-------|-------|
---------------|---------------|---------------|---------------|-------|-------|


-------|-------|-------||
-------|-------|-------||
-------|-------|-------||
-------|-------|-------||
-------|-------|-------||
-------|-------|-------||



Duration Legend
---------------
W - whole
H - half
Q - quarter
E - 8th
S - 16th
T - 32nd
X - 64th
. - note dotted
|-n-|  - n-tuplets


Tablature Legend
----------------
L - tied note
x - dead note
g - grace note
(n) - ghost note
> - accentuded note
NH - natural harmonic
AH - artificial harmonic
TH - tapped harmonic
SH - semi harmonic
PH - pitch harmonic
h - hammer on
p - pull off
b - bend
br - bendRelease
pb - preBend
pbr - preBendRelease
brb - bendReleaseBend
\n/ - tremolo bar dip
\n - tremolo bar dive
-/n - tremolo bar Release up
/n\ - tremolo bar inverted dip
/n - tremolo bar return
-\n - tremolo bar Release down
S - shift slide
s - legato slide
/ -  slide into from below or out of upwards
\ -  slide into from above or out of downwards
~ - vibrato
W - wide vibrato
tr - trill
TP - tremolo picking
T - tapping
S - slap
P - pop
< - fade in
^ - brush up
v - brush down

            
            
Suggest correction
Creating personal tab
Creating personal tab
You can edit any tab online and save it as your Personal.

You can edit, replace or remove any tab part or add personal notes – all changes will be seen only by you.

Personal tabs can be accessed anytime from any device, even offline.
Learn more »
comments
print report bad tab
5 comments total. Showing first comments.
0 reply
bowdowntomono 574 Jul 03, 2008 09:34 AM

Sounds good, although I think it would be much easier to play in drop D.

0 reply
the_messenger66 1,322 Jul 03, 2008 12:13 PM

yeah, drop d would be easier. but thanks for tabbing this cause i was about to tab it myself, and i didn't want to take the time to do so...

0 reply
littleleo88 223 Jul 03, 2008 03:45 PM

yeah, apart from the fact that... emppu plays guitar in standard D, not dropped D. See live performances for reference. old songs were standard tuning, and from Once onwards, standard D.

guest
Wanna post a correction for this tab? Suggest correction