Oops, an error
Loading. Please wait.
We have an official Wish I Had An Angel tab made by UG professional guitarists. Check out the tab »
×
1,989 views 3 this week
no commentswrite comment
1 2 3 4 5
3 more votes to show rating
add to favorites
×
Save as Personal and add changes to this tab that will be seen only by you. Learn more ›
×
You can save this tab as Personal to edit and correct it or add notes. All changes will be seen only by you. Learn more »
launch autoscroll
font size
0
reset
guitar tuner
backing track
0:00
0:00
edit
Autoscroll
slow
fast
+/-
esc
set tempo
stop
Title: Wish I Had An Angel
Artist: Nightwish
Album: Once
Composer: Tuomas Holopainen
Bassist: Marco Hietala
Tabbed by: FLBatista


INTRO RIFF:

F|-----------------------------------|
C|-----------------------------------|
G|-----------------------------------|
D|-2(29x)-5-3-2-2(25x)-3-3-6-6-5-5-3-|


VERSE 1:

F|-----------------------------------|
C|-----------------------------------|
G|-----------------------------------|
D|-2(12X)-3-3-0-0-2(24x)-5(8X)-0(8x)-|


VERSE 2:

F|--------------------------------------4---4-2-----|
C|---------------------------------0-2~---2-----5-2-|
G|-----------------------0(5X)-2-4------------------|
D|-2(12X)-3-3-0-0-2(24X)----------------------------|


PRE-CHORUS:

F|-------------------------------------------------------|
C|-------------------------------------------------------|
G|-5(12X)----------------------5(12X)---------0(8X)------|
D|--------4-4-4-4-2(13x)-5-4-0--------4-4-4-4-------0--0-|


CHORUS:

F|----------------------------------------------------|
C|---------------------2(8X)--------------------------|
G|--------5(16X)-0(8X)--------------------------2(8X)-|
D|-2(32X)--------------------2(16X)-4(8X)-5(8X)-------|


F|-----------------|
C|-----------------|
G|-5-5-5-5-7-7-7-7-|
D|-----------------|


BRIDGE:

F|----------------------------|
C|----------------------------|
G|----------------------------|
D|-2-2-3-3-2-2-2-0-0-2-2------|


PLAY:

- VERSE 2
- PRE-CHORUS
- CHORUS


BRIDGE 2:

F|-------------------------------------------------------|
C|-------------------------------------------------------|
G|-------------------------------------------------------|
D|-2(5X)-3-3-0-0-2-2--2--2--2--2--2--2--3--0--2----5-4-3-|


VERSE 3:

F|-----------------------------------------------------------------|
C|-----------------------------------------------------------------|
G|-------------------------------------------------------0-5-0-7\--|
D|-0-0---0---0---000-0---0---2-2-3-0-0---0---0---0---0-------------|


F|-----------------------------------------------------------------|
C|-----------------------------------------------------------------|
G|---------------------------------------------------------5-5-5-5-|
D|-0-0---0---0---000-0---0---2-2-3-0-0---0---0---0-3-3-3-3---------|


FURIOUS VERSE

F|--------------------------------------|
C|--------------------------------------|
G|--------------------------------------|
D|-2(7x)-3-2(7x)-0-2(9X)-3-3-0-2-3-0----|


F|----------------------------------------------|
C|----------------------------------------------|
G|----------------4-4-4--------------------1----|
D|--2(7x)-3-2(4x)----------2(9X)-3-3-0-2-3------|


TARJA VERSE:

F|-----------------------------------------------------------------|
C|-----------------------------------------------------------------|
G|-------------------------------------------------------0-5-0-7\--|
D|-0-0---0---0---000-0---0---2-2-3-0-0---0---0---0---0-------------|


F|-----------------------------------------------------------------|
C|-----------------------------------------------------------------|
G|---------------------------------------------------------5-5-5-5-|
D|-0-0---0---0---000-0---0---2-2-3-0-0---0-0-0-0-0-3-3-3-3---------|


DURING THE KEYBOARD SOLO:

F|--------------------------------------------------------------------------7\--|
C|----------------------------------------------------------------------7-5-----|
G|-3(12X)-----------------------------0-2-3(12X)---------------5555-7-5---------|
D|--------2-2-2-2-0(7X)-2-3-0-5-0-3-2------------2-2-2-2-3(8X)------------------|

PLAY:

- CHORUS
- INTRO RIFF


FINAL:

F|---------------------------------|X3
C|---------------------------------|
G|---------------------------------|
D|-2-2-3-3-2-2-2-0-0-2-2-2-0-2-2-2-|


F|------------------------------|
C|------------------------------|
G|------------------------------|
D|-2-2-3-3-2-2-2-0-0-2-2--2-3-2-|


Leg:

~ : Let Ring
h : Hammer On

            
            
Suggest correction
Creating personal tab
Creating personal tab
You can edit any tab online and save it as your Personal.

You can edit, replace or remove any tab part or add personal notes – all changes will be seen only by you.

Personal tabs can be accessed anytime from any device, even offline.
Learn more »
Give kudos to tab author, rate the tab!
1 2 3 4 5
comments
print report bad tab
guest
You may want to rate the tab now too:
select rating
Wanna post a correction for this tab? Suggest correction