Oops, an error
Loading. Please wait.

Caigo chords

version 2
version 2

Whole song

44 views 3 this week
no commentswrite comment
1 2 3 4 5
3 more votes to show rating
add to favorites
×
Save as Personal and add changes to this tab that will be seen only by you. Learn more ›
×
You can save this tab as Personal to edit and correct it or add notes. All changes will be seen only by you. Learn more »
launch autoscroll
font size
0
reset
transpose
0
reset
display chords
guitar tuner
edit
Autoscroll
slow
fast
+/-
esc
set tempo
stop
Strumming
There is no strumming pattern for this song yet. and get +5 IQ
INTRO:

SE HACE 2 VECES

e--3-2----0-2-3--3-----3-2----0-2-3-0-----
B-------3-------------------3-------------
G-----------------------------------------
D-----------------------------------------
A-----------------------------------------
E-----------------------------------------

e--3-2----0-2-3-------3-2----0-2-3--------
B-------3--------1--------3--------3------
G-----------------------------------------
D-----------------------------------------
A-----------------------------------------
E-----------------------------------------

G
Otro dia mas sentado aca
Em
Mirando la vida que se va
C
Tanta mierda tanta soledad
D
Ya me deberia acostumbrar

G
Mientras fumo las horas se van
Em
Mi destino escrito ya esta
C
No conozco la felicidad
D
No merezco nada en realidad

G
Quiero que me digan la verdad
Em
Y creo que nunca la dira
C
Mi alma dura ya no quiere hablar
D
Y aunque quiera nadie va a escuchar

G
Caigo y estoy sin querer levantarme
Em
No hay persona en este mundo que no te defraude
C
caigo y estoy sin querer levantarme
D
No hay persona en este mundo a quien no defraude

(SE REPITE VARIAS VECES HASTA EL FINAL CON LOS MISMOS ACORDES)


COMENTARIOS A MI CORREO PUNKROCKLOVE_88@

            
            
Suggest correction
Creating personal tab
Creating personal tab
You can edit any tab online and save it as your Personal.

You can edit, replace or remove any tab part or add personal notes – all changes will be seen only by you.

Personal tabs can be accessed anytime from any device, even offline.
Learn more »
Give kudos to tab author, rate the tab!
1 2 3 4 5
comments
print report bad tab
guest
Wanna post a correction for this tab? Suggest correction