Oops, an error
Loading. Please wait.

Fiction tab

1,035 views 1 this week
no commentswrite comment
1 2 3 4 5
x 3
add to favorites
×
Save as Personal and add changes to this tab that will be seen only by you. Learn more ›
×
You can save this tab as Personal to edit and correct it or add notes. All changes will be seen only by you. Learn more »
launch autoscroll
font size
0
reset
how to read this tab
guitar tuner
edit
Autoscroll
slow
fast
+/-
esc
set tempo
stop
Here it is guys, not sure what the prob was with it last time but here it is
again. Cheers, Dave..

Fiction - Nik Kershaw
Album - 15 Minutes

This is my first proper tab so excuse me if its shite, but its 100% accurate
and it took me absolutly ages to work out, hope you appreciate it

The key to this song is getting it all to flow together smoothly, once you
can do that its a real crowd pleaser, plus its such a little known song you
can make up your own words for it, tell your missus you wrote it for her,
and she’ll think you’re god! Good luck...


Capo on 4th

Riff 1
|----------------------------------------------------------|
|-----------3---------------------3------------------------|
|-------2------p0----------0--------2-----------0----------|  x 3
|--0-----------------4--------------------0h2--------------|
|-------------------------3--------------------------------|
|----------------------------------------------------------|

Riff 2
|-----------------------------------------------------------|
|------------3--------------------------3-------------------|
|-------0--------------0-----------0------------------------| X 1
|----------------------------------------------h0-----------|
|---------------0h2-------2h3-------------------------------|
|--3--------------------------------------------------------|

Riff 1
|----------------------------------------------------------|
|-----------3---------------------3------------------------|
|-------2------p0----------0--------2-----------0----------|  x 3
|--0-----------------4--------------------0h2--------------|
|-------------------------3--------------------------------|
|----------------------------------------------------------|

Pre Chorus (almost same as riff 2 but ends very slightly different)

|-----------------------------------------------------------|
|------------3--------------------------3-------------------|
|-------0--------------0-----------0------------------| X 1-|
|-----------------------------------------------------------|
|---------------0h2-------2h3------------2------------------|
|--3--------------------------------------------------------|

Chorus
|------------------------------------------------------------------------------|
|------------1--------------1-------------3-------------3----------------3-----|
|--------0-------------0-------------0--------------0---------------0----------|
|------------------2-----------------------------0-----------------------------|
|--0---------------------------2-------------------------------3---------------|
|------------------------------------------------------------------------------|

-------------------------------------------|
-------------------------3-----------------|
-------0-----------2--------p0----------0--| X 3
--0h2---------0----------------------4-----|
-------------------------------------------|
-------------------------------------------|

|-------------------------------------------------------------------------------------------|
|-------------3-------------3--------------3---------------3-------------3------------------|
|--------0-------------0---------------0--------------0-------------0--------------------0--|
|------------------2------------------------------2-------------------------------0h2-------|
|--3------------------------------3-----------------------------3---------------------------|
|-------------------------------------------------------------------------------------------|

|-------------------------------------------------------------------|
|------------3---------------------------------3--------------------|
|--------0-----------------0-------------0--------------------------|
|------------------------------------------------------0h2----------|
|-----------------0h2-----------2h3---------------------------------|
|--3----------------------------------------------------------------| ... then
straight back into Riff 1

Interlude

G (330033) D (xx0232) C9 (x32033)
G (330033) D (xx0232) C9 (x32033) Am7 (x02203)

Any questions get in touch davetidman@hotmail.com

Increase the pea’s!

            
            
Suggest correction
Creating personal tab
Creating personal tab
You can edit any tab online and save it as your Personal.

You can edit, replace or remove any tab part or add personal notes – all changes will be seen only by you.

Personal tabs can be accessed anytime from any device, even offline.
Learn more »
Give kudos to tab author, rate the tab!
1 2 3 4 5
comments
print report bad tab
guest
Wanna post a correction for this tab? Suggest correction