Oops, an error
Loading. Please wait.

I Whisper In The Ear Of The Dead tab

version 1
version 1

Whole song

Interactive

by Nile
670 views 1 this week
no commentswrite comment
1 2 3 4 5
3 more votes to show rating
add to favorites
×
Save as Personal and add changes to this tab that will be seen only by you. Learn more ›
×
You can save this tab as Personal to edit and correct it or add notes. All changes will be seen only by you. Learn more »
launch autoscroll
font size
0
reset
how to read this tab
guitar tuner
edit
Autoscroll
slow
fast
+/-
esc
set tempo
stop
Author
Band:  Nile
Album: In Their Darkened Shrines
Song:  I Whisper In The Ear Of The Dead

Copyright (c)  (Relapse) (2002)
Version 2.0 - (10/01/04)




.  - palm mute           /  - slide up to
\  - slide down to       ~  - vibrato
h  - hammer on           b  - Bend
p  - pull off            Suffixes for bend
t  - tap                 f  - full bend    h - half bend
ph - pinched harmonic    q  - quarter bend t - tap bend
*  - see comment         ^  - Hold bend    r release bend
x  - Stuccatto           ~  - vibrato bend
,  - slight palm mute    () - ghost note, sustained note
"  - tremolo note        <> - Trill

Tunning: A E A D F# B


Riff A:

|-------------|------------------|------------------|
|-------------|------------------|------------------|
|-------------|------------------|------------------|
|-1---4---3---|------------------|------------------|
|-1---4---3---|------------------|------------------|
|-1---4---3---|-0000000000000000-|-1111111111111111-|
                ................   ................

|------------------|------------------|------------------|
|------------------|------------------|------------------|
|------------------|------------------|------------------|
|------------------|------------------|------------------|
|------------------|------------------|------------------|
|-7777777777777777-|-6666666666666666-|-3333333333333333-|
  ................   ................   ................

|------------------|-------------|------------------|
|------------------|-------------|------------------|
|------------------|-------------|------------------|
|------------------|-1---4---3---|------------------|
|------------------|-1---4---3---|------------------|
|-4444444444444444-|-1---4---3---|-0000000000000000-|
  ................                 ................

                    (these are 10's)
|------------------|----------------------------------|
|------------------|----------------------------------|
|------------------|----------------------------------|
|------------------|----------------------------------|
|------------------|----------------------------------|
|-1111111111111111-|-10101010101010101010101010101010-|
  ................    . . . . . . . . . . . . . . . .

|------------------|------------------|
|------------------|------------------|
|------------------|------------------|
|------------------|------------------|
|------------------|------------------|
|-9999999999999999-|-6666777766666666-|
  ................   ................


Rhy. Fill 1:

|-------------|-------------|
|-------------|-------------|
|-------------|-7-----------|
|-1---4---3---|-5-----------|
|-1---4---3---|-5-----------|
|-1---4---3---|-5-----------|


Outro: Most of this is quite hard to hear due to the feedback and I
       think its played on a keyboard as well.  I think it's best
       played with a clean guitar tone.  The feedback pitches are,
       for the most part A with occasional rises to A# and, towards
       the end, C.

|------------------|------------------|------------------|
|-8---7------------|------------------|------------------|
|---------8---7----|------------------|------------------|
|------------------|------------------|-6h8-6------------|
|------------------|------------------|------------------|
|------------------|------------------|------------------|


|------------------|------------------|------------------|
|--------------8~~-|-~~~~~~~~~~~~~~~~-|------------------|
|------------------|------------------|------------------|
|-/8---------------|------------------|-/8---6-----------|
|------------------|------------------|------------------|
|------------------|------------------|------------------|

|------------------|------------------|------------------|
|------------------|------------------|------------------|
|-7~~~~~~~~~~~~~~~-|-~~~~~~~~~~~~~~~~-|------------------|
|------------------|------------------|------------------|
|------------------|------------------|------------------|
|------------------|------------------|------------------|

|------------------|------------------|------------------|
|------------------|------------------|------------------|
|------------------|------------------|------------------|
|------------------|-8~~~~~~~~~~~~~~~-|------------------|
|------------------|------------------|------------------|
|------------------|------------------|------------------|

|------------------|------------------|-14h15-14----14-----|
|-9~~~~~~~~~~~~~~~-|-8~~~~~~~~~~~~~~~-|----------15----15--|
|------------------|------------------|--------------------|
|------------------|------------------|--------------------|
|------------------|------------------|--------------------|
|------------------|------------------|--------------------|

|------------------|-14h15-14----14-----|--------------------|
|------------------|----------15----15--|--------------------|
|------------------|--------------------|--------------------|
|------------------|--------------------|--------------------|
|------------------|--------------------|--------------------|
|------------------|--------------------|--------------------|

|------------------|------------------|--------------------|
|------------------|------------------|--------------------|
|------------------|------------------|--------------------|
|----------/8------|------------------|--------------------|
|------------------|------------------|--------------------|
|------------------|------------------|--------------------|

|------------------|------------------|--------------------|
|-8---7------------|------------------|--------------------|
|---------8--------|------------------|--------------------|
|------------------|------------------|--------------------|
|------------------|------------------|--------------------|
|------------------|------------------|--------------------|



Song Structure:

Riff A         x4
Rhy. Fill 1

Break

Riff A         x4
Rhy. Fill 1
Outro


I think the song structure is correct, but haven't got the CD
at hand to check the number of times Riff A is played.  Pretty
sure it's 4 for both times though.

Any comments, corrections or suggestions are welcome.


END


            
            
Suggest correction
Creating personal tab
Creating personal tab
You can edit any tab online and save it as your Personal.

You can edit, replace or remove any tab part or add personal notes – all changes will be seen only by you.

Personal tabs can be accessed anytime from any device, even offline.
Learn more »
Give kudos to tab author, rate the tab!
1 2 3 4 5
comments
print report bad tab
guest
You may want to rate the tab now too:
select rating
Wanna post a correction for this tab? Suggest correction