Oops, an error
Loading. Please wait.

Papyrus Containing The Spell To Preserve Its Possessor Against Attacks From He Who Is In The Water tab

version 1
version 1

Whole song

Interactive

by Nile
10,446 views 3 this week
7 commentsread comments
1 2 3 4 5
x 4
add to favorites
×
Save as Personal and add changes to this tab that will be seen only by you. Learn more ›
×
You can save this tab as Personal to edit and correct it or add notes. All changes will be seen only by you. Learn more »
launch autoscroll
font size
0
reset
how to read this tab
guitar tuner
edit
Autoscroll
slow
fast
+/-
esc
set tempo
stop
Tuning: Drop A

[Intro] 
(riff 1) 
(0:00)
(2x)
(gtr 1)
B |---------------------------------------------------------------------------------|
F#|---------------------16-15-13----------------------------------------------------|
D |------------------------------16-13-12-13-16-13-12-------------------------------|
A |---------------------------------------------------16-13-12----------------------|
E |-5-6-5--8-9-8--6-7-6----------------------------------------14-11-10-11-14-11-10-|
A |-5-6-5--8-9-8--6-7-6-------------------------------------------------------------|

B |----------------------------------------------------------------------------------|
F#|-16-15-13----------------------15-16-15-13--16-18-16-15--13-16-15-13--------------|
D |----------16-13-12-13-16-13-12----------------------------------------------------|
A |----------------------------------------------------------------------------------|
E |----------------------------------------------------------------------------------|
A |----------------------------------------------------------------------------------|

B |----------------------------------------------------------------------------------|
F#|-16-15-13-------------------------------------------------------------------------|
D |----------16-13-12-13-16-13-12----------------------------------------------------|
A |-------------------------------16-13-12-------------------------------------------|
E |----------------------------------------14-11-10-11-14-11-10----------------------|
A |----------------------------------------------------------------------------------|

B |---------------------------------------------------|----|
F#|-16-15-13------------------------------------------|----|
D |----------16-13-12-13-16-13-12---------------------|----|
A |---------------------------------------------------|----|
E |-------------------------------5-6-5--8-9-8--5-6-5-|-5\-|
A |-------------------------------5-6-5--8-9-8--5-6-5-|-5\-|

(gtr 2)
B |--------------------------------------------------------------|
F#|--------------------------------------------------------------|
D |---------------------8-7-5------------------------------------|
A |---------------------------9-6-5-6-9-6-5----------------------|
E |-5-6-5--8-9-8--6-7-6---------------------9-6-5----------------|
A |-5-6-5--8-9-8--6-7-6---------------------------9-6-5-6-9-6-5--|

B |---------------------------------------------------------------|
F#|---------------------------------------------------------------|
D |-8-7-5---------------7-8-7-5--8-10-8-7--5-8-7-5----------------|
A |-------9-6-5-6-9-6-5-------------------------------------------|
E |---------------------------------------------------------------|
A |---------------------------------------------------------------|

B |---------------------------------------------------------------|
F#|---------------------------------------------------------------|
D |-8-7-5---------------------------------------------------------|
A |-------9-6-5-6-9-6-5-------------------------------------------|
E |---------------------9-6-5-------------------------------------|
A |---------------------------9-6-5-6-9-6-5-----------------------|

B |------------------------------------------|----|
F#|------------------------------------------|----|
D |-8-7-5------------------------------------|----|
A |-------9-6-5-6-9-6-5----------------------|----|
E |----------------------5-6-5--8-9-8--5-6-5-|-5\-|
A |----------------------5-6-5--8-9-8--5-6-5-|-5\-|

(riff 2) 
(0:17)
(x3)
(ending 1 ending 2)
B |-----------------------------------------|------|------|
F#|-----------------------------------------|------|------|
D |-----------------------------------------|------|-16-15|
A |-----------------------------------------|-9~~~-|-13-12|
E |-----------------------------------------|------|-11-10|
A |-8-6-5-3-5-6-8-6-5-3--8-6-5-3-5-6-8-6-5-3|------|------|

(riff 3) 
(0:36) 
(4x)
B |-------------------------------------------|
F#|-------------------------------------------|
D |-------------------------------------------|
A |-------------------------------------------|
E |-------------------------------------------|
A |-12-11-9-11-12-11-9--11-9-8-6-8-9-11-9-8-6-|

(riff 4) 
(1:01) 
(7x)
B |-------------------------------|
F#|-------------------------------|
D |-------------------------------|
A |-20-18-17-15-17-18-20-18-17-15-|
E |-------------------------------|
A |-------------------------------|

[Chorus]
(riff 5) 
(1:07) 
(2x)
(gtr 1)
(ending 1 ending 2)
B |----------------------------------------|------|----------|
F#|----------------------------------------|------|----------|
D |-8--7---------5--7---------8--7/-11--10-|-\5~~-|-/14-13~~-|
A |-6--5---------3--5---------6--5/-9---8--|-\3~~-|-/12-11~~-|
E |-6--5--8-6-5--3--5--8-6-5--6--5/-9---8--|-\3~~-|-/12-11~~-|
A |-6--5--8-6-5--3--5--8-6-5--6--5/-9---8--|-\3~~-|-/12-11~~-|

(gtr 2)
(ending 1 ending 2)
B |----------------------------------------|------|----------|
F#|-9--8---------6--8---------9--8--12--11-|-\6~~-|-/15-14~~-|
D |-8--7---------5--7---------8--7/-11--10-|-\5~~-|-/14-13~~-|
A |----------------------------------------|------|----------|
E |-------8-6-5--------8-6-5---------------|------|----------|
A |-6--5--8-6-5--3--5--8-6-5--6--5/-9---8--|-\3~~-|-/12-11~~-|

(riff 2) 
(1:31)
(x3)
(ending 1 ending 2)
B |-----------------------------------------|------|------|
F#|-----------------------------------------|------|------|
D |-----------------------------------------|------|-16-15|
A |-----------------------------------------|-9~~~-|-13-12|
E |-----------------------------------------|------|-11-10|
A |-8-6-5-3-5-6-8-6-5-3--8-6-5-3-5-6-8-6-5-3|------|------|

(riff 6) 
(1:50) 
(3x)
B |-------------------------------------------|
F#|-------------------------------------------|
D |-------------------------------------------|
A |-------------------------------------------|
E |-------------------------------------------|
A |-12-11-9-11-12-11-9--11-9-8-6-8-9-11-9-8-6-|

B |-------------------------------------------|-----------------------|
F#|-------------------------------------------|-----------------------|
D |-------------------------------------------|-----------------------|
A |-------------------------------------------|-----------------------|
E |-------------------------------------------|-----------------------|
A |-12-11-9-11-12-11-9--11-9-8-6-8-9-11-9-8-6-|-15-14-12-14-15-14-12--|

B |--------------------------------------------------------------------|
F#|--------------------------------------------------------------------|
D |--------------------------------------------------------------------|
A |--------------------------------------------------------------------|
E |--------------------------------------------------------------------|
A |-14-12-11-9-11-12-14-12-11-9----------------------------------------|

B |--------------------------------------------------------------------|
F#|--------------------------------------------------------------------|
D |--------------------------------------------------------------------|
A |--------------------------------------------------------------------|
E |--------------------------------------------------------------------|
A |-18-17-15-17-18-17-15--17-15-14-12-14-15-17-15-14-12----------------|

(riff 5) 
(2:00) 
(2x)
(gtr 1)
(ending 1 ending 2)
B |----------------------------------------|------|----------|
F#|----------------------------------------|------|----------|
D |-8--7---------5--7---------8--7/-11--10-|-\5~~-|-/14-13~~-|
A |-6--5---------3--5---------6--5/-9---8--|-\3~~-|-/12-11~~-|
E |-6--5--8-6-5--3--5--8-6-5--6--5/-9---8--|-\3~~-|-/12-11~~-|
A |-6--5--8-6-5--3--5--8-6-5--6--5/-9---8--|-\3~~-|-/12-11~~-|

(gtr 2)
(ending 1 ending 2)
B |----------------------------------------|------|----------|
F#|-9--8---------6--8---------9--8--12--11-|-\6~~-|-/15-14~~-|
D |-8--7---------5--7---------8--7/-11--10-|-\5~~-|-/14-13~~-|
A |----------------------------------------|------|----------|
E |-------8-6-5--------8-6-5---------------|------|----------|
A |-6--5--8-6-5--3--5--8-6-5--6--5/-9---8--|-\3~~-|-/12-11~~-|

(riff 2) 
(1:31)
(x3)
(ending 1 ending 2)
B |-----------------------------------------|------|------|
F#|-----------------------------------------|------|------|
D |-----------------------------------------|------|-16-15|
A |-----------------------------------------|-9~~~-|-13-12|
E |-----------------------------------------|------|-11-10|
A |-8-6-5-3-5-6-8-6-5-3--8-6-5-3-5-6-8-6-5-3|------|------|

(riff 1) 
(2:35)
(2x)
(gtr 1)
B |---------------------------------------------------------------------------------|
F#|---------------------16-15-13----------------------------------------------------|
D |------------------------------16-13-12-13-16-13-12-------------------------------|
A |---------------------------------------------------16-13-12----------------------|
E |-5-6-5--8-9-8--6-7-6----------------------------------------14-11-10-11-14-11-10-|
A |-5-6-5--8-9-8--6-7-6-------------------------------------------------------------|

B |----------------------------------------------------------------------------------|
F#|-16-15-13----------------------15-16-15-13--16-18-16-15--13-16-15-13--------------|
D |----------16-13-12-13-16-13-12----------------------------------------------------|
A |----------------------------------------------------------------------------------|
E |----------------------------------------------------------------------------------|
A |----------------------------------------------------------------------------------|

B |----------------------------------------------------------------------------------|
F#|-16-15-13-------------------------------------------------------------------------|
D |----------16-13-12-13-16-13-12----------------------------------------------------|
A |-------------------------------16-13-12-------------------------------------------|
E |----------------------------------------14-11-10-11-14-11-10----------------------|
A |----------------------------------------------------------------------------------|

B |---------------------------------------------------|----|
F#|-16-15-13------------------------------------------|----|
D |----------16-13-12-13-16-13-12---------------------|----|
A |---------------------------------------------------|----|
E |-------------------------------5-6-5--8-9-8--5-6-5-|-5\-|
A |-------------------------------5-6-5--8-9-8--5-6-5-|-5\-|

(gtr 2)
B |--------------------------------------------------------------|
F#|--------------------------------------------------------------|
D |---------------------8-7-5------------------------------------|
A |---------------------------9-6-5-6-9-6-5----------------------|
E |-5-6-5--8-9-8--6-7-6---------------------9-6-5----------------|
A |-5-6-5--8-9-8--6-7-6---------------------------9-6-5-6-9-6-5--|

B |---------------------------------------------------------------|
F#|---------------------------------------------------------------|
D |-8-7-5---------------7-8-7-5--8-10-8-7--5-8-7-5----------------|
A |-------9-6-5-6-9-6-5-------------------------------------------|
E |---------------------------------------------------------------|
A |---------------------------------------------------------------|

B |---------------------------------------------------------------|
F#|---------------------------------------------------------------|
D |-8-7-5---------------------------------------------------------|
A |-------9-6-5-6-9-6-5-------------------------------------------|
E |---------------------9-6-5-------------------------------------|
A |---------------------------9-6-5-6-9-6-5-----------------------|

B |------------------------------------------|----|
F#|------------------------------------------|----|
D |-8-7-5------------------------------------|----|
A |-------9-6-5-6-9-6-5----------------------|----|
E |----------------------5-6-5--8-9-8--5-6-5-|-5\-|
A |----------------------5-6-5--8-9-8--5-6-5-|-5\-|


************************************

| \  Slide down
| ~  Vibrato
| /  Slide up

************************************

            
            
Suggest correction
Creating personal tab
Creating personal tab
You can edit any tab online and save it as your Personal.

You can edit, replace or remove any tab part or add personal notes – all changes will be seen only by you.

Personal tabs can be accessed anytime from any device, even offline.
Learn more »
comments
print report bad tab
7 comments total. Showing first comments.
0 reply
silxz 10 Jun 30, 2008 04:32 AM

I LOVE YOU!!

0 reply
THE NEKRYPH 501 Jun 30, 2008 06:40 AM

I knew I was right about some of the parts that were incorrect in other tabs. Thanks for this.

+1 reply
silxz 10 Jul 02, 2008 08:11 AM

but also could u please guitar pro it then i would love u even more :D

guest
Wanna post a correction for this tab? Suggest correction