Oops, an error
Loading. Please wait.

Godzilla tab

by Nina
93 views 1 this week
no commentswrite comment
1 2 3 4 5
3 more votes to show rating
add to favorites
×
Save as Personal and add changes to this tab that will be seen only by you. Learn more ›
×
You can save this tab as Personal to edit and correct it or add notes. All changes will be seen only by you. Learn more »
launch autoscroll
font size
0
reset
how to read this tab
guitar tuner
edit
Autoscroll
slow
fast
+/-
esc
set tempo
stop
/:  Slide
UP: Jalar la cuerda hacia arriba 1 semi tono.

INTRO:

Guitarra 1: Clean

e|---5---7---5--5-----7---9---7---7---------10---------------12-------|
B|-5---5------5---5/7---7-------7-------9-------9---9----9------9-----|
G|------------------------------------9---9-------9----9---9------9---|
D|------------------------------------------------------------------9-|
A|--------------------------------------------------------------------|
E|--------------------------------------------------------------------|x4


e|--------5--------------5--------------5-------------|
B|----5-----5---5----5-----5---5----5-----5-----------|
G|--2---2-----2------------------------------------1--|
D|-----------------4---4-----4----2---2-----2--0---2--|
A|-------------------------------------------------2--|
E|----------------------------------------------------|


RITMO (las veces que sea necesario).

Guitarra 2: Distor y palanca en graves


e|--------12------------10-12-------10-10--10-------------------------|
B|--10-------12--14-----------10---------------14--12-----------------|
G|--------------------------------------------------------------------|
D|--------------------------------------------------------------------|
A|--------------------------------------------------------------------|
E|--------------------------------------------------------------------|


COROS:
Guitarra 1:

    A           F#m              D           E
e|----------------------------------------------------------|
B|----------------------------------------------------------|
G|-------------------------------7-7--7-7-7-----------------|
D|--7-7--7-7-6--4--4-4--4-4-7-4--7-7--7-7-7--2--2-2--2--5-6-|
A|--7-7--7-7-6--4--4-4--4-4-7-4--5-5--5-5-5--2--2-2--2--5-6-|
D|--5-5--5-5-4--2--2-2--2-2-5-2--------------0--0-0--0--3-4-|


            A           F#m
Compro un traje de dinosaurio

       D            E
Ahora se siente godzilla

A           F#m          D
Una y otra vez caer

               E
Pero nadie te va a parar


A                    F#m                D
Alguien diga cuando va a terminar

              E
Antes de que maten a este idiota

  A                F#m               D               E
Tu hermana dijo: no esta bien


 A              F#m
Supersonico ambiente electronico

 D            E
Todos en armonia siguiendo

A              F#m
Piensalo muy bien

             D           E
No arruines todos los momentos felices


 A              F#m
Supersonico ambiente electronico

 D            E
Todos en armonia siguiendo

A              F#m
Piensalo muy bien

             D           E
No arruines todos los momentos felices


BRIDGE:

Guitarra 1:

e|---------------------------|   |----------|
B|---------------------------|   |----------|
G|---------------------------|   |----------|
D|--2-2--2-2--0-0--2-2--0--2-|   |--2--5--6-|
A|--2-2--2-2--0-0--2-2--0--2-|   |--2--5--6-|
E|---------------------------|x4 |--0--3--4-|


Guitarra 2:

e|-----------------------------------|
B|--10-10/12--10-10/14--10-10/18--10-|
G|-----------------------------------|
D|-----------------------------------|
A|-----------------------------------|
E|-----------------------------------|


-> Coros


SOLO:

Guitarra 1:

e|--------------------------------------------------------------------|
B|--------------------------------------------------------------------|
G|--------------------------------------------------------------------|
D|--7x16--9/UP--7x16--9/UP--9UP-9UP-9--7------------------------------|
A|--------------------------------------------------------------------|
E|--------------------------------------------------------------------|

e|---------------------------------------------12----------------------|
B|--10x16--12/UP---12/UP-12--10--10x16--12/UP----12/UP--12--10--12--10-|
G|---------------------------------------------------------------------|
D|---------------------------------------------------------------------|
A|---------------------------------------------------------------------|
E|---------------------------------------------------------------------|


Guitarra 2 Hace el ritmo


 A              F#m
Supersonico ambiente electronico

 D            E
Todos en armonia siguiendo

A              F#m
Piensalo muy bien

             D           E
No arruines todos los momentos felices


 A              F#m
Supersonico ambiente electronico

 D            E
Todos en armonia siguiendo

A              F#m
Piensalo muy bien

             D           E
No arruines todos los momentos felices


OUT:

Guitarra 1:

 A              F#m                   D                 E
Supersonico ambiente electronico

 A              F#m                   D                 E
Supersonico ambiente electronico

 A              F#m                   D                 E
Supersonico ambiente electronico

 A              F#m                   D                 E            A
Supersonico ambiente electronico


Guitarra 2: Ritmo

            
            
Suggest correction
Creating personal tab
Creating personal tab
You can edit any tab online and save it as your Personal.

You can edit, replace or remove any tab part or add personal notes – all changes will be seen only by you.

Personal tabs can be accessed anytime from any device, even offline.
Learn more »
Give kudos to tab author, rate the tab!
1 2 3 4 5
comments
print report bad tab
guest
Wanna post a correction for this tab? Suggest correction