Oops, an error
Loading. Please wait.

Bay Of Angels tab

80 views 1 this week
no commentswrite comment
1 2 3 4 5
3 more votes to show rating
add to favorites
×
Save as Personal and add changes to this tab that will be seen only by you. Learn more ›
×
You can save this tab as Personal to edit and correct it or add notes. All changes will be seen only by you. Learn more »
launch autoscroll
font size
0
reset
how to read this tab
guitar tuner
edit
Autoscroll
slow
fast
+/-
esc
set tempo
stop
Author
Difficulty
-------------------------- Nine Black Alps ----------------------------------|
-------------------------- Bay of Angels ------------------------------------|

Tabbed By: Diêgo Palmeira

Intro/Verse:

E|--0-0-0----0-0-0-------------|
B|--0-0-0----8-8-8-------------|
G|--6-6-6----9-9-9-------------|
D|-----------------------------|
A|-----------------------------|
E|-----------------------------|

Chorus:

 C5             G           D5
It's all I can do just to stay here
 C5               G            D5
And bring myself back down to earth
 C5             G            D5   B5
If ever you're lost on your way here
 C5                     D5             B5
You'll see me, with a view from the top of the world

The top of the world
E|--0-0-0----0-0-0-------------|
B|--0-0-0----8-8-8-------------|
G|--6-6-6----9-9-9-------------|
D|-----------------------------|
A|-----------------------------|
E|-----------------------------| (2x)


C, G   D, A    C, B     E <-- (Play this 'E'only when you go to the solo)
      ooooh,    ooooohhhh


Solo (Guitar 1):

E|--2-2-2----3-3-3-------------|
B|--1-1-1-0--0-0-0-0-----------|
G|-----------------------------|
D|-----------------------------|
A|-----------------------------|
E|-----------------------------| (2x)


Solo (Guitar 2):
B|--8h10-10h12-13-13-12-10-8-8h10-10h12-12h13-13h17-17h19--|


For the end, play: A, Em

End with: A

            
            
Suggest correction
Creating personal tab
Creating personal tab
You can edit any tab online and save it as your Personal.

You can edit, replace or remove any tab part or add personal notes – all changes will be seen only by you.

Personal tabs can be accessed anytime from any device, even offline.
Learn more »
Give kudos to tab author, rate the tab!
1 2 3 4 5
comments
print report bad tab
guest
You may want to rate the tab now too:
select rating
Wanna post a correction for this tab? Suggest correction