Oops, an error
Loading. Please wait.

Collector tab

version 2
version 2

Whole song

Interactive

1,752 views 1 this week
1 commentread comment
1 2 3 4 5
2 more votes to show rating
add to favorites
×
Save as Personal and add changes to this tab that will be seen only by you. Learn more ›
×
You can save this tab as Personal to edit and correct it or add notes. All changes will be seen only by you. Learn more »
launch autoscroll
font size
0
reset
how to read this tab
guitar tuner
edit
Autoscroll
slow
fast
+/-
esc
set tempo
stop
Difficulty
This tab was all figured out by me TheNiNGuitarist search me on YouTube!!
I required NO help with creating this tab all I did was watch the
"NiN With Teeth 2005 Rehearsals" 5 million times!!!!!!!!!!

Nine Inch Nails
The Collector
[With_Teeth]
I'm this Tab is 100% CORRECT

Key:
B=Bend
/=Slide

This is for the Verse or at least i think it the verse i'm not sure,
but whatever this part is called this exactly how you play it.
E------------------------------------------------------------------|
B------------------------------------------------------------------|
G------------------------------------------------------------------|
D---10-10-10-10----10-10---10-10---10---10-10-10-10---10-----------|
A------------------------------------------------------------------|
E------------------------------------------------------------------|


Chorus
The little 14 at the end is use for the feedback noise

E-----------------------------------------------------------14B----|
B------------------------------------------------------------------|
G------------------------------------------------------------------|
D---10-10-10-10-10-10-10-10----------------------------------------|
A---8--8--8--8--8--8--8--8----10-10-10-10-10-10-10-10--------------|
E-----------------------------8--8--8--8--8--8--8--8---------------|

This is the part Trent usually plays Live. I don't what the part
would be called but play and you'll know what part it is.
E------------------------------------------------------------------|
B------------------------------------------------------------------|
G------------------------------------------------------------------|
D------------------------------------------------------------------|
A------------------------------------------------------------------|
E------11-10-8-10---11-10-8-10---11-10-8-10---11-10-8-10/1---------|

            
            
Suggest correction
Creating personal tab
Creating personal tab
You can edit any tab online and save it as your Personal.

You can edit, replace or remove any tab part or add personal notes – all changes will be seen only by you.

Personal tabs can be accessed anytime from any device, even offline.
Learn more »
Give kudos to tab author, rate the tab!
1 2 3 4 5
comments
print report bad tab
1 comment total.
0 reply
tabmax1718 10 May 27, 2014 08:09 PM

What is the tuning for this song?

guest
Wanna post a correction for this tab? Suggest correction