Oops, an error
Loading. Please wait.

Everything tab

version 2
version 2

Whole song

Interactive

370 views 3 this week
no commentswrite comment
1 2 3 4 5
3 more votes to show rating
add to favorites
×
Save as Personal and add changes to this tab that will be seen only by you. Learn more ›
×
You can save this tab as Personal to edit and correct it or add notes. All changes will be seen only by you. Learn more »
launch autoscroll
font size
0
reset
how to read this tab
guitar tuner
edit
Autoscroll
slow
fast
+/-
esc
set tempo
stop
Song: Everything
Artist: Nine Inch Nails
Album: Hesitation Marks (2013) 

Tunings: Dropped D: (DADGBe)

Alot of guitars in this song! Please rate feedback is helpful as well :)

Verse (Guitar 1)'I survived'
e|------------------------------------------------------------|
B|------------------------------------------------------------|
G|------------------------------------------------------------|
D|---------6-6-6-6-6-6-6-6-6-6-6-6----------------------------| x3
A|--6-6-6--4-4-4-4-4-4-4-4-4-4-4-4--1-1-1--6-6-6-6-6-6-6-6-6-6|
D|--6-6-6---------------------------1-1-1--6-6-6-6-6-6-6-6-6-6|

Last time                                             Distortion'and anything'
e|--------------------------------------------------------------------------|
B|--------------------------------------------------------------------------|
G|--------------------------------------------------------------------------|
D|---------6-6-6-6-6-6-6-6-6-6-6-6-----------------------------6-6-6-6-6-6-6| 
A|--6-6-6--4-4-4-4-4-4-4-4-4-4-4-4--1-1-1--6-6-6-6-6-6-6-6-6-6-6-6-6-6-6-6-6|
D|--6-6-6---------------------------1-1-1--6-6-6-6-6-6-6-6-6-6-6-6-6-6-6-6-6|

Verse (Guitar 2)(Comes in about 0.18) 
Palm Muted
e|----------------------------------|
B|----------------------------------|
G|----------------------------------|
D|---------6-6-6-6-6-6-6-6-6-6-6-6--| x4
A|----------------------------------|
D|--6-6-6---------------------------|

Guitar 3 (Distorted)(Comes in around 0.26)

e|---------------------------------|
B|---------------------------------|
G|---------------------------------|
D|-------------1/6-6-6-6-6-6-6-6---| 
A|--------1/6--1/6-6-6-6-6-6-6-6---|
D|---1/6--1/6--1/6-6-6-6-6-6-6-6---|

Chorus (0.32): (Guitar 1) (the bend is a half step bend) 'All the walls begin'

e|----------------------------------------------------------------------------|
B|----------------------------------------------------------------------------|
G|----------------------------------------------------------------------------|
D|----9-9-9-9--7-7-7--12-12-12--7-7-7-7--9-9-9-9--8-8-8-8b-8b-8b-8b-----------| 
A|----9-9-9-9--7-7-7--12-12-12--7-7-7-7--9-9-9-9--8-8-8-8b-8b-8b-8b-----------|
D|----9-9-9-9--7-7-7--12-12-12--7-7-7-7--9-9-9-9--8-8-8-8b-8b-8b-8b-----------|

e|----------------------------------------------------------------------------|
B|----------------------------------------------------------------------------|
G|----------------------------------------------------------------------------|
D|---9-9-9-9-9-9-9--7-7-7-7-7--12-12-12-12--14-14-14-14--7-7-7-7--8b-8b-8b-8b-| x2
A|---9-9-9-9-9-9-9--7-7-7-7-7--12-12-12-12--14-14-14-14--7-7-7-7--8b-8b-8b-8b-|
D|---9-9-9-9-9-9-9--7-7-7-7-7--12-12-12-12--14-14-14-14--7-7-7-7--8b-8b-8b-8b-|

Guitar 3 (Distorted)

e|----------------------------------|
B|----------------------------------|
G|----------------------------------|
D|-----9b10r9b10r9-12b13r12b13r12---| x4
A|----------------------------------|
D|----------------------------------|

Post Chorus/Verse (0.55): Guitar 1 (repeats for the 2nd time at 1.19 )

e|------------------------------------------------------------------------|
B|------------------------------------------------------------------------|
G|-----13-13-13-11-11-11-10-10-10-8-8-8-6-6-6-8-8-8-6-6-6-5-5-5-3-3-3-----|
D|-----x--x--x--x--x--x--x--x--x--x-x-x-x-x-x-x-x-x-x-x-x-x-x-x-x-x-x-6-6-| 
A|-----11-11-11-9--9--9--8--8--8--6-6-6-4-4-4-6-6-6-4-4-4-3-3-3-1-1-1-x-x-|
D|--------------------------------------------------------------------6-6-|

e|------------------------------------------------------------------------------|
B|------------------------------------------------------------------------------|
G|-----13-13-13-11-11-11-10-10-10-8-8-8-6-6-6-8-8-8-6-6-6-5-6-5-5-5-5-5-5-5-5-5-|
D|-----x--x--x--x--x--x--x--x--x--x-x-x-x-x-x-x-x-x-x-x-x-x-x-x-x-x-x-x-x-x-x-x-|x2
A|-----11-11-11-9--9--9--8--8--8--6-6-6-4-4-4-6-6-6-4-4-4-3/4\3-3-3-3-3-3-3-3-3-|
D|------------------------------------------------------------------------------|

Verse 2 (1.09) (Guitar 2) 'Wave Goodbye'
Palm Muted
e|----------------------------------------------------------------|
B|----------------------------------------------------------------|
G|----------------------------------------------------------------|
D|----------------------------------------------------------------| 
A|--11-11-11-9-9-9-8-8-8-6-6-6-4-4-4-6-6-6-4-4-4-3-3-3-1-1-1------|
D|-----------------------------------------------------------6-6--|

e|---------------------------------------------------------------------|
B|---------------------------------------------------------------------|
G|---------------------------------------------------------------------|
D|---------------------------------------------------------------------| 
A|--11-11-11-9-9-9-8-8-8-6-6-6-4-4-4-6-6-6-4-4-4-3/4\3-3-3-3-3-3-3-3-3-|
D|---------------------------------------------------------------------|

Guitar 3 (Distorted)(1.31) 'Something else'

e|---------------------------------|
B|---------------------------------|
G|---------------------------------|
D|-------------1/6-6-6-6-6-6-6-6---| 
A|--------1/6--1/6-6-6-6-6-6-6-6---|
D|---1/6--1/6--1/6-6-6-6-6-6-6-6---|

Chorus 2

(Guitar 1) (the bend is a half step bend) 'But the sting'

e|-----------------------------------------------------------------------|
B|-----------------------------------------------------------------------|
G|-----------------------------------------------------------------------|
D|----9-9-9-9--7-7-7--12-12-12--7-7-7-7--9-9-9-9--8-8-8-8b-8b-8b-8b------| 
A|----9-9-9-9--7-7-7--12-12-12--7-7-7-7--9-9-9-9--8-8-8-8b-8b-8b-8b------|
D|----9-9-9-9--7-7-7--12-12-12--7-7-7-7--9-9-9-9--8-8-8-8b-8b-8b-8b------|

e|----------------------------------------------------------------------------|
B|----------------------------------------------------------------------------|
G|----------------------------------------------------------------------------|
D|---9-9-9-9-9-9-9--7-7-7-7-7--12-12-12-12--14-14-14-14--7-7-7-7--8b-8b-8b-8b-|x2
A|---9-9-9-9-9-9-9--7-7-7-7-7--12-12-12-12--14-14-14-14--7-7-7-7--8b-8b-8b-8b-|
D|---9-9-9-9-9-9-9--7-7-7-7-7--12-12-12-12--14-14-14-14--7-7-7-7--8b-8b-8b-8b-|

Guitar 3 (Distorted)

e|----------------------------------|
B|----------------------------------|
G|----------------------------------|
D|-----9b10r9b10r9-12b13r12b13r12---| x4
A|----------------------------------|
D|----------------------------------|


Last Verse/Outro (2.03) 'I am home'

Verse (Guitar 1)
e|------------------------------------------------------------|
B|------------------------------------------------------------|
G|------------------------------------------------------------|
D|---------6-6-6-6-6-6-6-6-6-6-6-6----------------------------| x4
A|--6-6-6--4-4-4-4-4-4-4-4-4-4-4-4--1-1-1--6-6-6-6-6-6-6-6-6-6|
D|--6-6-6---------------------------1-1-1--6-6-6-6-6-6-6-6-6-6|


Verse (Guitar 2)(2.16)
Palm Muted
e|----------------------------------|
B|----------------------------------|
G|----------------------------------|
D|---------6-6-6-6-6-6-6-6-6-6-6-6--| x19
A|----------------------------------|
D|--6-6-6---------------------------|

Guitar 3 (2.28) 

e|------------------------------------------------------------------------|
B|------------------------------------------------------------------------|
G|-----13-13-13-11-11-11-10-10-10-8-8-8-6-6-6-8-8-8-6-6-6-5-5-5-3-3-3-----|
D|-----x--x--x--x--x--x--x--x--x--x-x-x-x-x-x-x-x-x-x-x-x-x-x-x-x-x-x-6-6-| 
A|-----11-11-11-9--9--9--8--8--8--6-6-6-4-4-4-6-6-6-4-4-4-3-3-3-1-1-1-x-x-|
D|--------------------------------------------------------------------6-6-|

e|------------------------------------------------------------------------------|
B|------------------------------------------------------------------------------|
G|-----13-13-13-11-11-11-10-10-10-8-8-8-6-6-6-8-8-8-6-6-6-5-6-5-5-5-5-5-5-5-5-5-|
D|-----x--x--x--x--x--x--x--x--x--x-x-x-x-x-x-x-x-x-x-x-x-x-x-x-x-x-x-x-x-x-x-x-|x4
A|-----11-11-11-9--9--9--8--8--8--6-6-6-4-4-4-6-6-6-4-4-4-3/4\3-3-3-3-3-3-3-3-3-|
D|------------------------------------------------------------------------------|

Guitar 1 (synth w/delay)(2.40) 'Always here'

e|-------------------------------------------------------------|
B|-------------------------------------------------------------|
G|-------------------------------8-8h10p8h10-8-8h10p8h10p8-(x4)|
D|-------------------------------------------------------------| 
A|----6-6h8p6h8-6-6h8p6h8p6h8-(x2)-----------------------------|
D|-------------------------------------------------------------|

Heavy reverb synth (2.53)

e|----------------------------------|
B|----------------------------------|
G|----------------------------------|
D|----11-11-11-11-11-11-11-11-------| keeps playing till the end of the song
A|----11-11-11-11-11-11-11-11-------|
D|----11-11-11-11-11-11-11-11-------|

            
            
Suggest correction
Creating personal tab
Creating personal tab
You can edit any tab online and save it as your Personal.

You can edit, replace or remove any tab part or add personal notes – all changes will be seen only by you.

Personal tabs can be accessed anytime from any device, even offline.
Learn more »
Give kudos to tab author, rate the tab!
1 2 3 4 5
comments
print report bad tab
guest
You may want to rate the tab now too:
select rating
Wanna post a correction for this tab? Suggest correction