Oops, an error
Loading. Please wait.

Getting Smaller tab

version 3
version 3

Whole song

6,441 views 1 this week
3 commentsread comments
1 2 3 4 5
x 4
add to favorites
×
Save as Personal and add changes to this tab that will be seen only by you. Learn more ›
×
You can save this tab as Personal to edit and correct it or add notes. All changes will be seen only by you. Learn more »
launch autoscroll
font size
0
reset
how to read this tab
guitar tuner
edit
Autoscroll
slow
fast
+/-
esc
set tempo
stop
Author
Song:		Getting Smaller
Artist:		Nine Inch Nails
Album:		With Teeth
Year:		2005
Tabbed by:	Foo-Fighter
Tuning:         Eb-A-D-G-B-e

Guess this is as close as I get.
NOTICE! that the E string is tuned down a half step to an Eb
(you could tune the whole guitar down, but then you'll have
 to fit the tab for that tuning)

INTRO:
	couldn't really get that one right, but I usually 
	just mess around whit the two chords shown below...
	(You'll get the point, I guess)

E |--------|
B |--------|
G |--8--6--|
D |--8--6--|
A |--6--4--|
Eb|--------|

Verse:
	Listen to the song to get the rythm right. It is a
	bit tricky.

E |-----------------------------------|
B |-----------------------------------|
G |----------------------------x-x-x--|
D |-----8\6-----------11-11--8-x-x-x--|
A |--6--6\4--4/6--6\--9--9---6-x-x-x--|
Eb|--0-------3/5--5\------------------|

Chorus:
	You could play this in an alternative way using the
	A string, but then the heavy feel disappears a bit

E |----------------------------------------|
B |----------------------------------------|
G |----------------------------------------|
D |----------------------------------------|
A |----------------------------------------|
Eb|-15--12-11-0-11-10-0-9-0-10-0-12-0-15-0-|

Brigde:

E |---------------------------|
B |---------------------------|
G |---------------------------|
D |---------------------------|
A |-9-9--9-9--4--6-6---6-6-6--|
Eb|-8-8--8-8--3--5-5---5-5-5--|

Verse:

Chorus:

END!

Didn't tab the second guitar. You'd have to figure that one out yourself.
have fun

Rate and commen, Thx

Mjorgensen88@gmail.com

            
            
Suggest correction
Creating personal tab
Creating personal tab
You can edit any tab online and save it as your Personal.

You can edit, replace or remove any tab part or add personal notes – all changes will be seen only by you.

Personal tabs can be accessed anytime from any device, even offline.
Learn more »
comments
print report bad tab
3 comments total.
+1 reply
foo-fighter 198 Jun 17, 2009 06:43 AM

Made a small mistake in the chorus part...

E |----------------------------------------|
B |----------------------------------------|
G |----------------------------------------|
D |----------------------------------------|
A |----------------------------------------|
Eb|-15--12-11-0-11-10-0-9-0-10-0-12-0-15-0-|

This should be more correct...

0 reply
foo-fighter 198 Jun 17, 2009 06:44 AM

in fact there is another mistake in the intro chords...

E |--------|
B |--------|
G |--8--6--|
D |--8--6--|
A |--6--4--|
Eb|--------|

0 reply
hoelgy 10 May 11, 2014 05:58 AM

thanks man! this is the only good tab of this song on the internet...

guest
You may want to rate the tab now too:
select rating
Wanna post a correction for this tab? Suggest correction