Oops, an error
Loading. Please wait.

I Would For You tab

version 1
version 1

Whole song

577 views 3 this week
no commentswrite comment
1 2 3 4 5
3 more votes to show rating
add to favorites
×
Save as Personal and add changes to this tab that will be seen only by you. Learn more ›
×
You can save this tab as Personal to edit and correct it or add notes. All changes will be seen only by you. Learn more »
launch autoscroll
font size
0
reset
how to read this tab
guitar tuner
edit
Autoscroll
slow
fast
+/-
esc
set tempo
stop
Artist: Nine Inch Nails
Song: I would for you
Album Hesitation Marks (2013)

Please Rate!

Tuning drop D for all Guitars

Guitar 1 (D A D G B e)
Guitar 2 (D A D G B e)
Guitar 3 (D A D G B e)

Verse: 'What a pathetic string of words' [0.19-1.12]

Guitar 1 (Clean) (short delay about 1 repeat for each mute)
e|-----------------------------------------------------------------|
B|-------x-x------------x-x-----------x-x----------x-x--------x-x--|
G|-------x-x------------x-x-----------x-x----------x-x--------x-x--|
D|-------x-x------------x-x-----------x-x----------x-x--------x-x---|x2
A|-----------------------------------------------------------------|
D|-----------------------------------------------------------------|

Guitar 2 (Distorted) (w/delay)[0.47-1.12]                
              P.M|-----------------------------------------------------------|
e|---------------------------------------------------------------------------|
B|---------------------------------------------------------------------------|
G|---------------------------------------------------------------------------|
D|-------------------------------------------1-1-1-1-1-1-1-1-----------------|
A|-----3\1-3/1-----3-3-3-3-3-3-3-3-3-3--3-3------------------3-1-3-1-3(x4)---|
D|---------------------------------------------------------------------------|


Chorus [1.12-1.39] 'See I keep lying to myself'

Guitar 1 (Chorus) (Distorted)
e|------------------------------------------------------------------------------------------|
B|------------------------------------------------------------------------------------------|
G|------------------------------------------------------------------------------------------|
D|----15-15-15-15-15-15-15-15--13-13-13-13-13-13-13-13--6-6-6-6-6-6-6-6-6-6-6-6-6-6-6-6-----|
A|----15-15-15-15-15-15-15-15--13-13-13-13-13-13-13-13--6-6-6-6-6-6-6-6-6-6-6-6-6-6-6-6-----|
D|----15-15-15-15-15-15-15-15--13-13-13-13-13-13-13-13--6-6-6-6-6-6-6-6-6-6-6-6-6-6-6-6-----|

Guitar 1 Continued...
e|------------------------------------------------------------------------------------------|
B|------------------------------------------------------------------------------------------|
G|------------------------------------------------------------------------------------------|
D|----15-15-15-15-15-15-15-15--13-13-13-13-13-13-13-13--8-8-8-8-8-8-8-8-6-6-6-6-6-6-6-6-----| (X2
A|----15-15-15-15-15-15-15-15--13-13-13-13-13-13-13-13--8-8-8-8-8-8-8-8-6-6-6-6-6-6-6-6-----|
D|----15-15-15-15-15-15-15-15--13-13-13-13-13-13-13-13--8-8-8-8-8-8-8-8-6-6-6-6-6-6-6-6-----|

Guitar 2 (Chorus) (Distorted)
I'm sure this part is some kind of synth, I play this part using: reverse delay mixed 
along with the space setting on my Reverb Pedal.
 
e|------------------------------------------------------------------------------------------|
B|------------------------------------------------------------------------------------------|
G|----10brb11-8brb9---------------10brb11-8brb9---------------------------------------------|
D|------------------6brb7-6brb7-------------------8brb9--6brb7------------------------------| x2
A|------------------------------------------------------------------------------------------|
D|------------------------------------------------------------------------------------------|

Verse [1.39-1.42]                             
Guitar 2 (Overdriven)   
                             [Delay]   
P.M|------------------------|
e|------------------------------------|
B|------------------------------------|
G|------------------------------------|
D|--2-2-2-2-2-2-2--------------5-3----|
A|-------------------3-1-3-1---3\1----|
D|------------------------------------|

Verse [1.42-2.15] 'Didn't it seem like something more'

Guitar 2 (Overdriven) 
P.M|------------------------------------------------------------|
e|--------------------------------------------------------------|
B|--------------------------------------------------------------|
G|--------------------------------------------------------------|x5
D|-----------------------------1-1-1-1-1-1-1-1------------------|
A|--3-3-3-3-3-3-3-3-3-3---3-3------------------3-1-3-1-3--------|
D|--------------------------------------------------------------|

Guitar 1 (Clean) (short delay about 1 repeat for each mute)
e|-----------------------------------------------------------------|
B|-------x-x------------x-x-----------x-x----------x-x--------x-x--|
G|-------x-x------------x-x-----------x-x----------x-x--------x-x--|
D|-------x-x------------x-x-----------x-x----------x-x--------x-x---|x2
A|-----------------------------------------------------------------|
D|-----------------------------------------------------------------|

Chorus 2 [2.15-4.00] 'See I keep lying to myself'

Guitar 1 (Distorted)
e|------------------------------------------------------------------------------------------|
B|------------------------------------------------------------------------------------------|
G|------------------------------------------------------------------------------------------|
D|----15-15-15-15-15-15-15-15--13-13-13-13-13-13-13-13--6-6-6-6-6-6-6-6-6-6-6-6-6-6-6-6-----|
A|----15-15-15-15-15-15-15-15--13-13-13-13-13-13-13-13--6-6-6-6-6-6-6-6-6-6-6-6-6-6-6-6-----|
D|----15-15-15-15-15-15-15-15--13-13-13-13-13-13-13-13--6-6-6-6-6-6-6-6-6-6-6-6-6-6-6-6-----|

Guitar 1 Continued...
e|------------------------------------------------------------------------------------------|
B|------------------------------------------------------------------------------------------|
G|------------------------------------------------------------------------------------------|
D|----15-15-15-15-15-15-15-15--13-13-13-13-13-13-13-13--8-8-8-8-8-8-8-8-6-6-6-6-6-6-6-6-----| (X8)
A|----15-15-15-15-15-15-15-15--13-13-13-13-13-13-13-13--8-8-8-8-8-8-8-8-6-6-6-6-6-6-6-6-----|
D|----15-15-15-15-15-15-15-15--13-13-13-13-13-13-13-13--8-8-8-8-8-8-8-8-6-6-6-6-6-6-6-6-----|


Guitar 2 (Synthy Guitar) [2.15-3.08]
 
e|------------------------------------------------------------------------------------------|
B|------------------------------------------------------------------------------------------|
G|----10brb11-8brb9---------------10brb11-8brb9---------------------------------------------|
D|------------------6brb7-6brb7-------------------8brb9--6brb7------------------------------| x4
A|------------------------------------------------------------------------------------------|
D|------------------------------------------------------------------------------------------|

Guitar Solo [3.08-4.00}
Guitar 2 (Distortion)
(Tabbed as Octaves but I personally it by tremolo picking the root note only)
e|---------------------------------------------------------------------------------------------|
B|---------------------------------------------------------------------------------------------|
G|---15-18-18-18-18-17-12-13-15-15-16\15-18-18-18-18-17-12-13-15-16\15-------------------------|
D|---------------------------------------------------------------------------------------------| 
A|---13-16-16-16-16-15-10-11-13-13-14\13-16-16-16-16-15-10-11-13-14\13-------------------------|
D|---------------------------------------------------------------------------------------------|

Solo Continued... 
e|----------------------------------------------------------------------------------|
B|----------------------------------------------------------------------------------|
G|--15-18-18-18-18-17-12-13-15-16\15-15-18-18-18-18-17-11-13-15-13-12-10-10-15-15---|
D|----------------------------------------------------------------------------------|X2 As the 
A|--13-16-16-16-16-15-10-11-13-14\13-13-16-16-16-16-15-9--11-13-11-10-8--8--13-13---| whole solo
D|----------------------------------------------------------------------------------|

Guitar 3 (delay) [3.21-4.00}
This Part can be heard during the solo sounds a bit like piano but tabbed for guitar
e|--13--15tr-|
B|-----------|
G|-----------|
D|-----------|x6
A|-----------| 
D|-----------|

Outro - Piano and then synthy guitar again [4.00-4.28}
Guitar 3 (Distortion lots of reverb)
e|--------------------------------------------------------------------------|
B|--------------------------------------------------------------------------|
G|--10tr\8tr/10tr\8tr/10tr\8tr/10tr\8tr/10tr\8tr/10tr\8tr/10tr\8tr/10tr\8tr~|
D|--------------------------------------------------------------------------|
A|--------------------------------------------------------------------------| 
D|--------------------------------------------------------------------------|
That's it enjoy please rate :D

Relevant tab legend for this song
| /   slide up
| \   slide down
| x   Mute note
| brb  Bend Release Bend
| tr   Tremolo Picking
| ~ Vibrato

            
            
Suggest correction
Creating personal tab
Creating personal tab
You can edit any tab online and save it as your Personal.

You can edit, replace or remove any tab part or add personal notes – all changes will be seen only by you.

Personal tabs can be accessed anytime from any device, even offline.
Learn more »
Give kudos to tab author, rate the tab!
1 2 3 4 5
comments
print report bad tab
guest
You may want to rate the tab now too:
select rating
Wanna post a correction for this tab? Suggest correction