Oops, an error
Loading. Please wait.

Just Like You Imagined tab

version 3
version 3

Whole song

Interactive

3,871 views 1 this week
1 commentread comment
1 2 3 4 5
1 last vote to show rating
add to favorites
×
Save as Personal and add changes to this tab that will be seen only by you. Learn more ›
×
You can save this tab as Personal to edit and correct it or add notes. All changes will be seen only by you. Learn more »
launch autoscroll
font size
0
reset
how to read this tab
guitar tuner
edit
Autoscroll
slow
fast
+/-
esc
set tempo
stop
Author
Difficulty
Nine Inch Nails - Just like You imagined
(tabbed by Voodevil)

Tuning: Standard
Legend: v - vibretto
        h - hammer on
        ^ - bend

Piano intro. (00:12)
e|------------------------------------------------------------------|
B|------------------------------------------------------------------|
G|------------------------------------------------------------------|  x4
D|----7------3----2--0----------------------------------------------|
A|------------------------------------------------------------------|
E|------------------------------------------------------------------|

Rif 1 (00:54)
e|-----------------13-10--------------------------------------------|
B|-----88-----8-----------------------------------------------------|
G|-10-----10--------------------------------------------------------| x7
D|------------------------------------------------------------------|
A|------------------------------------------------------------------|
E|------------------------------------------------------------------|

Under-sound (01:07)
(it's synth. effect - like the most of sounds in that song - but You can try play it 
below. Play it as fast as You can do, I don't know how many times You should hit particular 
on)
e|------------------------------------------------------------------|
B|------------------------------------------------------------------|
G|------------------------------------------------------------------| A
D|--7777788888999991010101010---------------------------------------|
A|------------------------------------------------------------------|
E|------------------------------------------------------------------|
Split: lAlBlBlAl /x4
e|------------------------------------------------------------------|
B|------------------------------------------------------------------|
G|------------------------------------------------------------------| B
D|--99999101010101011111111111212121212-----------------------------|
A|------------------------------------------------------------------|
E|------------------------------------------------------------------|


Rif 2 (01:55)
e|------------------------------------------------------------------|
B|------------------------------------------------------------------|
G|------------------------------------------------------------------|  x4
D|--3^-5^-7^8^7^----------------------------------------------------|
A|------------------------------------------------------------------|
E|------------------------------------------------------------------|


Rif 3 (02:26)
It doesn't sound like an original synth. sound, but You can try play this part like here)
e|-----------10v----------------------------------------------------|
B|---------8--------------------------------------------------------|
G|-7h10^------------------------------------------------------------| x4
D|------------------------------------------------------------------|
A|------------------------------------------------------------------|
E|------------------------------------------------------------------|

Rif 4 (02:43)
e|------------------------------------------------------------------|
B|------------------------------------------------------------------|
G|------------------------------------------------------------------| x8
D|-7875-5753--------------------------------------------------------|
A|------------------------------------------------------------------|
E|------------------------------------------------------------------|


OUTRO. Piano (3:14)
e|------------------------------------------------------------------|
B|------------------------------------------------------------------|
G|------------------------------------------------------------------| x6
D|-3---7-8-10-12----------------------------------------------------|
A|------------------------------------------------------------------|
E|------------------------------------------------------------------|


It's easier version for novices and it sounds the same as original. Enjoy!:)

            
            
Suggest correction
Creating personal tab
Creating personal tab
You can edit any tab online and save it as your Personal.

You can edit, replace or remove any tab part or add personal notes – all changes will be seen only by you.

Personal tabs can be accessed anytime from any device, even offline.
Learn more »
Give kudos to tab author, rate the tab!
1 2 3 4 5
comments
print report bad tab
1 comment total.
0 reply
Playa923 10 Aug 14, 2009 10:09 PM

Everything sounds about right, great tab!

guest
You may want to rate the tab now too:
select rating
Wanna post a correction for this tab? Suggest correction