Oops, an error
Loading. Please wait.

Lights In The Sky bass

version 1
version 1

Whole song

Interactive

1,364 views 1 this week
1 commentread comment
1 2 3 4 5
x 6
add to favorites
×
Save as Personal and add changes to this tab that will be seen only by you. Learn more ›
×
You can save this tab as Personal to edit and correct it or add notes. All changes will be seen only by you. Learn more »
launch autoscroll
font size
0
reset
guitar tuner
edit
Autoscroll
slow
fast
+/-
esc
set tempo
stop
Author
Difficulty
Tabbers playing skills
-------------------------------------------------------------------------------
			     Lights In The Sky - Nine Inch Nails
-------------------------------------------------------------------------------

Tabbed By : MV4824
e-mail: FenderGuy2112@gmail.com

Tuning: (EADG)

|---------|---------|---------|---------|
|---------|---------|---------|---------|
|-3-3-3-3-|-4-4-4-4-|---------|---------|
|---------|---------|-5-5-5-5-|-6-6-6-6-| x4

|---------|---------|---------|---------|
|---------|---------|---------|---------|
|---------|---------|---------|---------|
|-1-1-1-1-|-0-0-0-0-|-4-4-4-4-|-3-3-2-2-| x2

|---------|---------|---------|---------|
|---------|---------|---------|---------|
|-3-3-3-3-|-4-4-4-4-|---------|---------|
|---------|---------|-5-5-5-5-|-6-6-6-6-| x4

|---------|---------|---------|---------|
|---------|---------|---------|---------|
|---------|---------|---------|---------|
|-1-1-1-1-|-0-0-0-0-|-4-4-4-4-|-3-3-2-2-| x2

That's it!  Should be near 100% correct.

- MV4824

===============================================================================


            
            
Suggest correction
Creating personal tab
Creating personal tab
You can edit any tab online and save it as your Personal.

You can edit, replace or remove any tab part or add personal notes – all changes will be seen only by you.

Personal tabs can be accessed anytime from any device, even offline.
Learn more »
comments
print report bad tab
1 comment total.
0 reply
allo_oui_c_moi 31 May 17, 2011 11:32 AM

Yo !

Very great tab ! Thank you.
However, when I play it, I add a little variation :

|---------|---------|---------|---------|
|---------|---------|---------|---------|
|-3-3-3-3-|-4-4-4-4-|---------|---------|
|---------|---------|-5-5-5-5-|-6-6-6-6-| x3

|---------|---------|---------|---------|
|---------|---------|---------|---------|
|-3-3-3-3-|-4-4-4-4-|---------|---------|
|---------|---------|-5-5-5-5-|-4-4-4-4-|

|---------|---------|---------|---------|
|---------|---------|---------|---------|
|---------|---------|---------|---------|
|-1-1-1-1-|-0-0-0-0-|-4-4-4-4-|-3-3-2-2-| x2

|---------|---------|---------|---------|
|---------|---------|---------|---------|
|-3-3-3-3-|-4-4-4-4-|---------|---------|
|---------|---------|-5-5-5-5-|-6-6-6-6-| x3

|---------|---------|---------|---------|
|---------|---------|---------|---------|
|-3-3-3-3-|-4-4-4-4-|---------|---------|
|---------|---------|-5-5-5-5-|-4-4-4-4-|

|---------|---------|---------|---------|
|---------|---------|---------|---------|
|---------|---------|---------|---------|
|-1-1-1-1-|-0-0-0-0-|-4-4-4-4-|-3-3-2-2-| x2

guest
You may want to rate the tab now too:
select rating
Wanna post a correction for this tab? Suggest correction