Oops, an error
Loading. Please wait.

Not So Pretty Now bass

version 1
version 1

Whole song

Interactive

1,309 views 1 this week
2 commentsread comments
1 2 3 4 5
2 more votes to show rating
add to favorites
×
Save as Personal and add changes to this tab that will be seen only by you. Learn more ›
×
You can save this tab as Personal to edit and correct it or add notes. All changes will be seen only by you. Learn more »
launch autoscroll
font size
0
reset
guitar tuner
edit
Autoscroll
slow
fast
+/-
esc
set tempo
stop
Difficulty
This is my 2nd tab.  :)  Feedback is appreciated!

Anyways, I hadn't seen a tab for this and I know I look for it every couple of months 
no luck.  So, I buckled down and made it myself.


[Main_Riff]
G|---------------------------------|
D|---------------------------------|
A|---------------------------------|
E|-3-3-3-3-3-3-3-3-3-3-3-3-3-3-3-3-|

G|---------------------------------|
D|---------------------------------|
A|---------------------------------|
E|-6-6-6-6-6-6-6-6-6-6-6-6-6-6-6-6-|          This is played through the
                                             entire song except one part
G|---------------------------------|
D|---------------------------------|
A|---------------------------------|
E|-1-1-1-1-1-1-1-1-1-1-1-1-1-1-1-1-|

G|--------------------------------|
D|--------------------------------|
A|--------------------------------|
E|-8-8-8-8-8-8-8-8-10-10-10-6-6-6-|


[Break_Down]
G|-----------------------------|
D|-----------------------------|             This is played when the drums
A|-----------------------------|             break down and it's just drums
E|-1-1--1-1--2*--3-3--4-4-4-4--|                       and bass
              * I'm not sure if this is 2 or another 1
                Try both to see what you like best


So, that's how I think it goes.  Any corrections or comments can be sent to
markharris60@gmail.com!

Thanks for checking my tab out and I hope it helps you!!

            
            
Suggest correction
Creating personal tab
Creating personal tab
You can edit any tab online and save it as your Personal.

You can edit, replace or remove any tab part or add personal notes – all changes will be seen only by you.

Personal tabs can be accessed anytime from any device, even offline.
Learn more »
Give kudos to tab author, rate the tab!
1 2 3 4 5
comments
print report bad tab
2 comments total.
0 reply
jahu 195 Mar 28, 2009 03:02 AM

almost OK, but I think it should be D#, not D in the last bar of main riff... something like

E|-8-8-8-8-8-8-8-8-|-11-11-11-11---6-6-6-|

and the breakdown part, I'd say

E|---1-1---1-1---3-|---3-3---4-4-4-4-|

0 reply
B33J 52 Jul 09, 2009 12:36 PM

I'm waiting for my version of the tab to be posted so we can compare.
My main riff is practically the same except the last notes are 5s.

I'm hearing the breakdown as a bit more complicated than that too.
Probably 1-3--1-3--4-44-5555

guest
Wanna post a correction for this tab? Suggest correction