Oops, an error
Loading. Please wait.

Not So Pretty Now tab

version 1
version 1

Whole song

Interactive

1,997 views 1 this week
no commentswrite comment
1 2 3 4 5
3 more votes to show rating
add to favorites
×
Save as Personal and add changes to this tab that will be seen only by you. Learn more ›
×
You can save this tab as Personal to edit and correct it or add notes. All changes will be seen only by you. Learn more »
launch autoscroll
font size
0
reset
how to read this tab
guitar tuner
edit
Autoscroll
slow
fast
+/-
esc
set tempo
stop
Nine Inch Nails - Not So Pretty Now

Again, I could never find this tab anywhere, so this is my attempt at doing it myself.  
me, everything sounds good.

Since this is only played live and it's slightly different each time, I can't give exact 
markings, so I'll do my best to describe when each part is.


Initial Lead Played Throughout Intro and Choruses
e|--------------------------------------------------------------------------|
B|--------------------------------------------------------------------------|
G|-10-10-10-10-10/12\4--4-4--4-4-4-4----------------------------------------|
D|--------------------------------------------------------------------------|
A|--------------------------------------------------------------------------|
E|--------------------------------------------------------------------------|

This is played every 4th time in place of the above riff.
e|--------------------------------------------------------------------------|
B|--------------------------------------------------------------------------|
G|-10-10-10-10-10/12\4-4--2-2-2--0-0-0--------------------------------------|
D|--------------------------------------------------------------------------|
A|--------------------------------------------------------------------------|
E|--------------------------------------------------------------------------|

This comes in about half-way through the intro riff.
e|---------------------------------------------------------------------------------|
B|---------------------------------------------------------------------------------|
G|-7-7-7-7-7-7-7-7-7-7-7-7-7-7-7-7-16-16-16-16-16-16-16-16-16-16-16-16-16-16-16-16-|
D|---------------------------------------------------------------------------------|
A|-5-5-5-5-5-5-5-5-5-5-5-5-5-5-5-5-14-14-14-14-14-14-14-14-14-14-14-14-14-14-14-14-|
E|---------------------------------------------------------------------------------|
e|---------------------------------------------------------------------------------|
B|---------------------------------------------------------------------------------|
G|-7-7-7-7-7-7-7-7-7-7-7-7-7-7-7-7-17-17-17-17-17-17-17-17-17-17-17-17-17-17-17-17-|
D|---------------------------------------------------------------------------------|
A|-7-7-7-7-7-7-7-7-7-7-7-7-7-7-7-7-15-15-15-15-15-15-15-15-15-15-15-15-15-15-15-15-|
E|---------------------------------------------------------------------------------|


After this, the verse starts, which is just bass until half-way through, when this comes in.
e|---------------------------------------------------------------------------|
B|---------------------------------------------------------------------------|
G|-7-7-7-9-9-9-9-9-9-9-9-9-9-10-10-10-----7-7-7-9-9-9-9-9-9-9-9-9-9-9-9-9----|
D|---------------------------------------------------------------------------|
A|-5-5-5-7-7-7-7-7-7-7-7-7-7-8--8--8------5-5-5-7-7-7-7-7-7-7-7-7-7-7-7-7----|
E|---------------------------------------------------------------------------|

e|---------------------------------------------------------------------------|
B|---------------------------------------------------------------------------|
G|-7-7-7-9-9-9-9-9-9-9-9-9-9-10-10-10-----7-7-7-9-9-9-9-9-5-5-5-3-3-3--------|
D|---------------------------------------------------------------------------|
A|-5-5-5-7-7-7-7-7-7-7-7-7-7-8--8--8------5-5-5-7-7-7-7-7-3-3-3-1-1-1--------|
E|---------------------------------------------------------------------------|


After this is the chorus again, which doesn't change.
Then about 3/4 through the song there is a breakdown with a solo towards the end.  This 
the best I can do for the solo.
e|---------------------------------------------------------------------------|
B|---------------------------------------------------------------------------|
G|---------------------------------------------------------------------------|
D|-14-14-14-14-19-19-19-13-13-13-13-21-21-21-21------------------------------|
A|---------------------------------------------------------------------------|
E|---------------------------------------------------------------------------|
That's not the actual amount of times each note is played, its very fast picking with 
16 picks for each note, you'll figure it out if you listen.

After this is just the chorus again about 3 times.

Hope this helps!

Send any feedback to markharris60@gmail.com!  Thanks!

            
            
Suggest correction
Creating personal tab
Creating personal tab
You can edit any tab online and save it as your Personal.

You can edit, replace or remove any tab part or add personal notes – all changes will be seen only by you.

Personal tabs can be accessed anytime from any device, even offline.
Learn more »
Give kudos to tab author, rate the tab!
1 2 3 4 5
comments
print report bad tab
guest
Wanna post a correction for this tab? Suggest correction