Oops, an error
Loading. Please wait.
We have an official Right Where It Belongs tab made by UG professional guitarists. Check out the tab »
×
136 views 1 this week
no commentswrite comment
1 2 3 4 5
3 more votes to show rating
add to favorites
×
Save as Personal and add changes to this tab that will be seen only by you. Learn more ›
×
You can save this tab as Personal to edit and correct it or add notes. All changes will be seen only by you. Learn more »
launch autoscroll
font size
0
reset
how to read this tab
guitar tuner
edit
Autoscroll
slow
fast
+/-
esc
set tempo
stop
[Intro]



e|----------0--------|----------0--------|----------0--------|----------0--------|
B|----3-----3--------|----3-----3--------|----3-----3--------|----3-----3--------|
G|-------------------|-------------------|-------------------|-------------------|
D|-0-----0-----------|-0-----0-----------|-0-----0-----------|-0-----0-----------|
A|-------------------|-------------------|-------------------|-------------------|
C|-------------------|-------------------|-------------------|-------------------|


[Verse]

     See the animal...

e|----------0--------|----------0--------|----0-----1--------|----------0--------|
B|----3-----3--------|----3-----3--------|----------1--------|----3-----3--------|
G|-------------------|-------------------|-------------------|-------------------|
D|-0-----0-----------|-0-----0-----------|-------------------|-------------------|
A|-------------------|-------------------|-3-----3-----------|-1-----1-----------|
C|-------------------|-------------------|-------------------|-------------------|

e|----------0--------|----------0--------|----0-----1--------|----------0--------|
B|----3-----3--------|----3-----3--------|----------1--------|----3-----3--------|
G|-------------------|-------------------|-------------------|-------------------|
D|-0-----0-----------|-0-----0-----------|-------------------|-------------------|
A|-------------------|-------------------|-3-----3-----------|-1-----1-----------|
C|-------------------|-------------------|-------------------|-------------------|

e|----------0--------|----------0--------|----0-----1--------|----------0--------|
B|----3-----3--------|----3-----3--------|----------1--------|----3-----3--------|
G|-------------------|-------------------|-------------------|-------------------|
D|-0-----0-----------|-0-----0-----------|-------------------|-------------------|
A|-------------------|-------------------|-3-----3-----------|-1-----1-----------|
C|-------------------|-------------------|-------------------|-------------------|

e|----------0--------|----------0--------|----0-----1--------|----------0--------|
B|----3-----3--------|----3-----3--------|----------1--------|----3-----3--------|
G|-------------------|-------------------|-------------------|-------------------|
D|-0-----0-----------|-0-----0-----------|-------------------|-------------------|
A|-------------------|-------------------|-3-----3-----------|-1-----1-----------|
C|-------------------|-------------------|-------------------|-------------------|


[Chorus]

     What if everything...

e|----------------5--|----------0-----3--|-------------------|----------0-----0--|
B|----------5--------|----3-----3--------|----------5-----6--|----3-----3--------|
G|----7-----7--------|-------------------|----7-----7--------|-------------------|
D|-------------------|-------------------|-------------------|-------------------|
A|-------------------|-1-----1-----------|-------------------|-------------------|
C|-7-----7-----------|-------------------|-5-----5-----------|-0-----0-----------|

e|----------------5--|----------0-----3--|-------------------|----------0-----0--|
B|----------5--------|----3-----3--------|----------5-----6--|----3-----3--------|
G|----7-----7--------|-------------------|----7-----7--------|-------------------|
D|-------------------|-------------------|-------------------|-------------------|
A|-------------------|-1-----1-----------|-------------------|-------------------|
C|-7-----7-----------|-------------------|-5-----5-----------|-0-----0-----------|

e|----------------5--|----------0-----3--|-------------------|----------0-----0--|
B|----------5--------|----3-----3--------|----------5-----6--|----3-----3--------|
G|----7-----7--------|-------------------|----7-----7--------|-------------------|
D|-------------------|-------------------|-------------------|-------------------|
A|-------------------|-1-----1-----------|-------------------|-------------------|
C|-7-----7-----------|-------------------|-5-----5-----------|-0-----0-----------|

e|----------------5--|----------0-----3--|-------------------|----------0-----0--|
B|----------5--------|----3-----3--------|----------5-----6--|----3-----3--------|
G|----7-----7--------|-------------------|----7-----7--------|-------------------|
D|-------------------|-------------------|-------------------|-------------------|
A|-------------------|-1-----1-----------|-------------------|-------------------|
C|-7-----7-----------|-------------------|-5-----5-----------|-0-----0-----------|


[Pre-Verse]

     Seeeeeeee...

e|----------0--------|----------0--------|----------0--------|----------0--------|
B|----3-----3--------|----3-----3--------|----3-----3--------|----3-----3--------|
G|-------------------|-------------------|-------------------|-------------------|
D|-0-----0-----------|-0-----0-----------|-0-----0-----------|-0-----0-----------|
A|-------------------|-------------------|-------------------|-------------------|
E|-------------------|-------------------|-------------------|-------------------|


[Verse]

     What if all...

e|----------0--------|----------0--------|----0-----1--------|----------0--------|
B|----3-----3--------|----3-----3--------|----------1--------|----3-----3--------|
G|-------------------|-------------------|-------------------|-------------------|
D|-0-----0-----------|-0-----0-----------|-------------------|-------------------|
A|-------------------|-------------------|-3-----3-----------|-1-----1-----------|
C|-------------------|-------------------|-------------------|-------------------|

e|----------0--------|----------0--------|----0-----1--------|----------0--------|
B|----3-----3--------|----3-----3--------|----------1--------|----3-----3--------|
G|-------------------|-------------------|-------------------|-------------------|
D|-0-----0-----------|-0-----0-----------|-------------------|-------------------|
A|-------------------|-------------------|-3-----3-----------|-1-----1-----------|
C|-------------------|-------------------|-------------------|-------------------|

e|----------0--------|----------0--------|----0-----1--------|----------0--------|
B|----3-----3--------|----3-----3--------|----------1--------|----3-----3--------|
G|-------------------|-------------------|-------------------|-------------------|
D|-0-----0-----------|-0-----0-----------|-------------------|-------------------|
A|-------------------|-------------------|-3-----3-----------|-1-----1-----------|
C|-------------------|-------------------|-------------------|-------------------|

e|----------0--------|----------0--------|----0-----1--------|----------0--------|
B|----3-----3--------|----3-----3--------|----------1--------|----3-----3--------|
G|-------------------|-------------------|-------------------|-------------------|
D|-0-----0-----------|-0-----0-----------|-------------------|-------------------|
A|-------------------|-------------------|-3-----3-----------|-1-----1-----------|
C|-------------------|-------------------|-------------------|-------------------|


[Chorus]

     What if everything...

e|----------------5--|----------0-----3--|-------------------|----------0-----0--|
B|----------5--------|----3-----3--------|----------5-----6--|----3-----3--------|
G|----7-----7--------|-------------------|----7-----7--------|-------------------|
D|-------------------|-------------------|-------------------|-------------------|
A|-------------------|-1-----1-----------|-------------------|-------------------|
C|-7-----7-----------|-------------------|-5-----5-----------|-0-----0-----------|

e|----------------5--|----------0-----3--|-------------------|----------0-----0--|
B|----------5--------|----3-----3--------|----------5-----6--|----3-----3--------|
G|----7-----7--------|-------------------|----7-----7--------|-------------------|
D|-------------------|-------------------|-------------------|-------------------|
A|-------------------|-1-----1-----------|-------------------|-------------------|
C|-7-----7-----------|-------------------|-5-----5-----------|-0-----0-----------|

e|----------------5--|----------0-----3--|-------------------|----------0-----0--|
B|----------5--------|----3-----3--------|----------5-----6--|----3-----3--------|
G|----7-----7--------|-------------------|----7-----7--------|-------------------|
D|-------------------|-------------------|-------------------|-------------------|
A|-------------------|-1-----1-----------|-------------------|-------------------|
C|-7-----7-----------|-------------------|-5-----5-----------|-0-----0-----------|

e|----------------5--|----------0-----3--|-------------------|----------0-----0--|
B|----------5--------|----3-----3--------|----------5-----6--|----3-----3--------|
G|----7-----7--------|-------------------|----7-----7--------|-------------------|
D|-------------------|-------------------|-------------------|-------------------|
A|-------------------|-1-----1-----------|-------------------|-------------------|
C|-7-----7-----------|-------------------|-5-----5-----------|-0-----0-----------|


[Outro]

     Seeeeeee...

e|-------------------|----------0--------|-------------------|----------0--------|
B|----------5--------|----3-----3--------|----------5--------|----3-----3--------|
G|----7-----7----2-3-|---------------2-5-|----7-----7--------|-------------------|
D|-------------------|-------------------|---------------3-2-|-------------------|
A|-------------------|-1-----1-----------|-------------------|---------------0-1-|
C|-7-----7-----------|-------------------|-5-----5-----------|-0-----0-----------|

e|-------------------|----------0--------|-------------------|----------0--------|
B|----------5--------|----3-----3--------|----------5--------|----3-----3--------|
G|----7-----7----2-3-|---------------2-5-|----7-----7--------|-------------------|
D|-------------------|-------------------|---------------3-2-|-------------------|
A|-------------------|-1-----1-----------|-------------------|---------------0-1-|
C|-7-----7-----------|-------------------|-5-----5-----------|-0-----0-----------|

e|-------------------|----------0--------|-------------------|----------0--------|
B|----------5--------|----3-----3--------|----------5--------|----3-----3--------|
G|----7-----7----2-3-|---------------2-5-|----7-----7--------|-------------------|
D|-------------------|-------------------|---------------3-2-|-------------------|
A|-------------------|-1-----1-----------|-------------------|---------------0-1-|
C|-7-----7-----------|-------------------|-5-----5-----------|-0-----0-----------|

e|-------------------|----------0--------|
B|----------5----3-1-|----3-----3--------|
G|----7-----7--------|---------------3-2-|     fin.
D|-------------------|-------------------|
A|-------------------|-1-----1-----------|
C|-7-----7-----------|-------------------|

************************************

| x   Dead note
| g   Grace note
| (n) Ghost note
| h   Hammer-on
| p   Pull-off
| r   Release
| >   Accented note
| t   Tapping
| b   Bend
| br  Bend release
| pb  Pre-bend
| pbr Pre-bend release
| /   Slide up
| \   Slide down
| ~   Vibrato
| s   Slap
| P   Pop
| PM  Palm mute
| TR  Trill
| N   Tremolo

************************************

            
            
Suggest correction
Creating personal tab
Creating personal tab
You can edit any tab online and save it as your Personal.

You can edit, replace or remove any tab part or add personal notes – all changes will be seen only by you.

Personal tabs can be accessed anytime from any device, even offline.
Learn more »
Give kudos to tab author, rate the tab!
1 2 3 4 5
comments
print report bad tab
guest
You may want to rate the tab now too:
select rating
Wanna post a correction for this tab? Suggest correction