Oops, an error
Loading. Please wait.

Right Where It Belongs tab

version 6
1,134 views 21 this week
no commentswrite comment
1 2 3 4 5
3 more votes to show rating
add to favorites
×
Save as Personal and add changes to this tab that will be seen only by you. Learn more ›
×
You can save this tab as Personal to edit and correct it or add notes. All changes will be seen only by you. Learn more »
launch autoscroll
font size
0
reset
how to read this tab
guitar tuner
edit
Autoscroll
slow
fast
+/-
esc
set tempo
stop
Right Where it Belongs by Nine Inch Nails

This is one of the bonus tracks on the With Teeth album, which is a more stripped
version of the original.

Any queries just comment, or if you feel you have to e-mail me:
smashing_jam@hotmail.com
Tuning is: (standard, Drop C)
e)
B)
G)
D)
A)
C)

Intro x 4
e)	--------------|
B)	--------------|
G)	-----7----5---|
D)	--------------|
A)	--5----5------|
C)	--------------|

Verse
e)	----------------        ---------------	      ---------------|
B)	----------------        -----5----6----	      -----3----1----|
G)	-----7----5-----   x2   ---------------	      ---------------|
D)	----------------        ---------------	      ---------------|
A)	--5----5--------        --3----3-------	      --1----1-------|
C)	----------------        ---------------	      ---------------|

Chorus x 4
e)----------------------------------------------------------------------------------|
B)----------------10----------------------8-------------------6-----------------5---|
G)-----7----5-----------------------------------------------------------------------|
D)---------------------------12----10-------------7----5-----------3----2-----------|
A)----------------------------------------------------------------------------------|
C)--7----7--------------10----10--------------5----5------------0----0--------------|

Not sure if the third position is right, the root is, but not sure about the 2nd and 4th note.

Verse 2nd Version – x 2
e)	----------------        ---------------	      ---------------|
B)	----------------        ---------------	      ---------------|
G)	-----7----5-----   x2   -----7----5----	      -----7----5----|
D)	----------------        ---------------	      ---------------|
A)	--5----5--------        --3----3-------	      --1----1-------|
C)	----------------        ---------------	      ---------------|

Then back into the original Verse

Outro
e)----------------------------------------------------------------------------------------|
B)----------------------------------------------------------------------------3----1------|
G)-----7----5---------------------------------------7----5--------------------------------|
D)---------------7--8--------12----10----7-------------------3---2------------------------|
A)--5----5--------------------------------------------------------------------------------|
C)------------------------10----10--------------5----5------------------0----0------------|


e)------------------------------------------------------------------------------------3---|
B)----------------------------------------------------------------------------3---1-------|
G)-----7----5---------------------------------------7----5--------------------------------|
D)---------------7--8--------12----10----7-------------------3---2------------------------|
A)--5----5--------------------------------------------------------------------------------|
C)------------------------10----10--------------5----5------------------0----0------------|

e)-------------------------------------------------------------------------------------3--|
B)-----------------------------------------------------------------------------3---1------|
G)-----7----5----------------------------------------7----5-------------------------------|
D)---------------7--8-------12----10----8/7-------------------3---2-----------------------|
A)--5----5--------------------------------------------------------------------------------|
C)-----------------------10----10----------------5----5------------------0----0-----------|

e)-----------------------------------------------------------------------|
B)-----------------------------------------------------------------------|
G)-----7----5------------------------------------------------------------|
D)---------------7--8--7--8--------8--7--8--7----------3--2--3--2--------|
A)--5----5---------------------------------------------------------------|
C)-----------------------------------------------------------------------|


Structure:
Intro
Verse
Chorus
Intro
Verse 2nd Version
Verse
Chorus
Outro

Lyrics:
See the animal in his cage that you built
Are you sure what side you're on?
Better not look him too closely in the eye
Are you sure what side of the glass you are on?

See the safety of the life you have built
Everything where it belongs
Feel the hollowness inside of your heart
And it's all right where it belongs

What if everything around you
Isn't quite as it seems
What if all the world you think you know
Is an elaborate dream?

And if you look at your reflection
Is that all you want it to be?
What if you could look right through the cracks
Would you find yourself, find yourself afraid to see?

What if all the world's inside of your head
Just creations of your own?
Your devils and your gods all the living and the dead
And you're really all alone?

You can live in this illusion
You can choose to believe
You keep looking but you can't find the woods
While you're hiding in the trees

What if everything around you
Isn't quite as it seems
What if all the world you used to know
Is an elaborate dream?

And if you look at your reflection
Is that all you want to be?
What if you could look right through the cracks
Would you find yourself, find yourself afraid to see?

            
            
Suggest correction
Creating personal tab
Creating personal tab
You can edit any tab online and save it as your Personal.

You can edit, replace or remove any tab part or add personal notes – all changes will be seen only by you.

Personal tabs can be accessed anytime from any device, even offline.
Learn more »
Give kudos to tab author, rate the tab!
1 2 3 4 5
comments
print report bad tab
guest
You may want to rate the tab now too:
select rating
Wanna post a correction for this tab? Suggest correction