Oops, an error
Loading. Please wait.
We have an official Breed tab made by UG professional guitarists. Check out the tab »
×
by Nirvana
31,151 views 27 this week
3 commentsread comments
1 2 3 4 5
x 17
add to favorites
guitar tuner
Autoscroll
slow
fast
+/-
esc
set tempo
stop
"Breed"
demo version
Play now

or get full version for Free

×
Get full version now!
Learn and play this song
in Tab Pro
Try for free

or get $10 off Welcome Bonus

Get welcome bonus
Get access to Tab Pro version of “Breed”!
Tab Pro is a premium guitar tab service, available on PC, Mac, iOS and Android
TRY FOR FREE
To download “Breed” Guitar Pro tab click button below
Please note that you must have Guitar Pro software installed on your
computer in order to view this file.
Suggest correction
comments
report bad tab
3 comments total.
+1 reply
ruvik 284 Feb 05, 2009 06:00 AM

best version!

0 reply
[BR]Sanaghan 992 Jan 23, 2011 11:50 AM

This version has sooo many errors with kurts part!

0 reply
satboog 352 Oct 05, 2014 11:41 AM

The last part of the verse (except at the 4th time i.e. before chorus) should be

e|----------------------------|
B|----------------------------|
G|------11--------------------|
D|--11-----11--10~~~~~~~~-----|
A|----------------------------|
E|----------------------------|


instead of
e|----------------------------|
B|----------------------------|
G|----------------------------|
D|--11--11--9--7~~~~~~~~------|
A|---9---9--------------------|
E|----------------------------|


The solo is not correct also but no space to correct it here

guest