Oops, an error
Loading. Please wait.

Clean Up Before She Comes bass

by Nirvana
1,662 views 1 this week
3 commentsread comments
1 2 3 4 5
x 6
add to favorites
×
Save as Personal and add changes to this tab that will be seen only by you. Learn more ›
×
You can save this tab as Personal to edit and correct it or add notes. All changes will be seen only by you. Learn more »
launch autoscroll
font size
0
reset
guitar tuner
edit
Autoscroll
slow
fast
+/-
esc
set tempo
stop
Author
NIRVANA
CLEAN UP BEFORE SHE COMES

PM- Palm Mute

(There is no actual bassline for this song but if there was, it would be like this):

Intro and Verse:
G:---------------------------------|
D:---------------------------------|
A:---------------------------------|
E:-0-11-12-0-11-12-0-11-12-0-11-11-|
  [-------------PM----------]
Chorus:
      A         C
G:---------------------------------------------------
D:---------------------------------------------------
A:-0-00-000-3-33-333---------------------------------
E:-------------------0-11-12-0-11-12-0-11-12-0-11-11-
      A         C       B A   B A 
G:--------------------------------|
D:--------------------------------|
A:-0-00-000-3-33-333--22220-22220-| 
E:--------------------------------|

BY MATTY
PLEASE rate this tab!

            
            
Suggest correction
Creating personal tab
Creating personal tab
You can edit any tab online and save it as your Personal.

You can edit, replace or remove any tab part or add personal notes – all changes will be seen only by you.

Personal tabs can be accessed anytime from any device, even offline.
Learn more »
comments
print report bad tab
3 comments total.
+1 reply
insomniac92 10 Nov 22, 2006 08:19 AM

dude, if there's no bassline, then don't post one!

0 reply
UltimateNirvana 110 Mar 03, 2007 09:25 PM

that tab sucked....

0 reply
thepyrosguitar 10 Mar 13, 2008 12:20 PM

the real way to play the chorus is
*---------------------------------------------------2X
*---------------------------------------------------
*-5-5-5-5-5-8-8-8-8-0-11-12-0-11-12-0-11-12-0-3-0-3-
*---------------------------------------------------
then play
*------------------------------
*------------------------------
*-7-7-7-7-7-4-4-7-7-7-7-7-4-4-/
*------------------------------

guest
You may want to rate the tab now too:
select rating
Wanna post a correction for this tab? Suggest correction