Oops, an error
Loading. Please wait.
We have an official Come As You Are tab made by UG professional guitarists. Check out the tab »
×
by Nirvana
494,518 views 33 this week
31 commentsread comments
1 2 3 4 5
x 61
add to favorites
×
Save as Personal and add changes to this tab that will be seen only by you. Learn more ›
×
You can save this tab as Personal to edit and correct it or add notes. All changes will be seen only by you. Learn more »
launch autoscroll
font size
0
reset
how to read this tab
guitar tuner
backing track
0:00
0:00
edit
Autoscroll
slow
fast
+/-
esc
set tempo
stop
#----------------------------------PLEASE NOTE--------------------------------#
#This file is the author's own work and represents their interpretation of the#
#song. You may only use this file for private study, scholarship, or research.#
#-----------------------------------------------------------------------------#
#-- File created with Instab - http://www.pconline.com/~smcarey/instab.html --#
#-----------------------------------------------------------------------------#

Author/Artist: Nirvana
Title: Come As You Are

A Arpeggio
b bend
() Bass

Tuning (eb A D G B E)
Live 1/2 Step Down Tuning (eb ab db gb bb eb), Played 1/2 step higher.
Key: (E + D) -> (E + A#) or (E + D)


e|----|---------------------------------------------|--|
B|----|---------------------------------------------|--|
G|----|---------------------------------------------|--|
D|----|---------------------------------------------|--|
A|----|-----------2------2--------------0--------0--|--|
Eb|-8-|-8-9--13------13----13--13-12-11---11-11-----|--|


  Verse

e|----|--------------------------|--|
B|----|--------------------------|--|
G|----|---------9---------4---4--|--|
D|----|---------9-------------5--|--|
A|----|-10-8-7------7-5-5---5----|--|
Eb|---|--------------------------|--|
                            A

  Chorus


e|----|----5-------x-----|
B|----|------------5-----|
G|----|------------5-----|
D|----|-7-----7----5-----|
A|----|-7-----7----7-----|
Eb|---|-x-----x----x-----|


  Bridge


e|-----|----------------|--|---------------------------------|
B|-----|----------------|--|---------------------------------|
G|-----|----------------|--|---------------------------------|
D|-9-9-|-9-9--12--14-14-|--|-15b-15b--15b-15br--14-14-12-12--|
A|-----|----------------|--|---------------------------------|
Eb|----|----------------|--|---------------------------------|


   G2 Solo


e|----|-0---------|
B|----|-0---------|
G|----|-9---------|
D|----|-9---------|
A|----|-7---------|
Eb|---|-----------|


      A

            
            
Suggest correction
Creating personal tab
Creating personal tab
You can edit any tab online and save it as your Personal.

You can edit, replace or remove any tab part or add personal notes – all changes will be seen only by you.

Personal tabs can be accessed anytime from any device, even offline.
Learn more »
comments
print report bad tab
31 comments total. Showing first comments.
+6 reply
Teen Spirit 666 May 13, 2008 01:11 AM

great tab. finally an accurate one. This is really good. It's not all powerchords, intro riff and simple solo like people think. Great job man.
and by the way, FIRST COMMENT!!!!!!!!!!!!!!!

+3 reply
Punkismygod 368 May 13, 2008 04:31 AM

really, REALLY accurate

+3 reply
wg99 90 May 13, 2008 05:18 AM

Worth 5*. Simply the best.

guest
You may want to rate the tab now too:
select rating
Wanna post a correction for this tab? Suggest correction