Oops, an error
Loading. Please wait.
We have an official Drain You tab made by UG professional guitarists. Check out the tab »
×
by Nirvana
14,272 views 27 this week
2 commentsread comments
1 2 3 4 5
x 12
add to favorites
×
Save as Personal and add changes to this tab that will be seen only by you. Learn more ›
×
You can save this tab as Personal to edit and correct it or add notes. All changes will be seen only by you. Learn more »
launch autoscroll
font size
0
reset
guitar tuner
backing track
0:00
0:00
edit
Autoscroll
slow
fast
+/-
esc
set tempo
stop
Author
Difficulty
Tabbed By : Yanomann
Email     : yanomann@gmail.com
Tuning    : Standard
Notes     : The original uses "Drop D" tuning.  In order
            to play using standard tuning, part of the
            chorus (most notably the D notes) is one 
            octave higher than the original.  Since you
            are playing the right note, it still sounds
            fine.

            tpt = triplet
            *   = let ring

Verse
G|--------------| x6
D|---------tpt--|
A|00-44----2221-|
E|------22------|

Chorus
G|-------|--------| |--------|--------| x3 |--------|-------|
D|-------|--------| |--------|--------|    |--------|-------|
A|-7--5--|--------| |5555555-|--------|    |--------|-------|
E|-------|77777775| |-------5|77777775|    |--3---2*|-------|

Verse
G|--------------| x8
D|---------tpt--|
A|00-44----2221-|
E|------22------|

Chorus
G|--------|--------| |--------|--------| x3 |-------|
D|--------|--------| |--------|--------|    |-------|
A|--7--5--|--------| |5555555-|--------|    |-------|
E|--------|77777775| |-------5|77777775|    |--3---2|

Then into the heroin induced freaky part which just...
G|--------| x8 
D|--------|
A|--------|
E|22222222|

G|--------|--------|--------|--------| x4
D|-4-4-4-4|-4-4-4-4|--------|--------|
A|--------|--------|--------|--------|
E|2-2-2-2-|2-2-2-2-|22222222|22222222|

G|--------| x8 progressively louder 
D|--------|
A|--------|
E|22222222|

And then this again, with a little more gusto this time
Verse
G|--------------| x10
D|---------tpt--|
A|00-44----2221-|
E|------22------|

Chorus                                       slowing
G|--------|--------| |--------|--------| x5 |--------|-------|
D|--------|--------| |--------|--------|    |--------|-------|
A|--7--5--|--------| |5555555-|--------|    |--------|-------|
E|--------|77777775| |-------5|77777775|    |--3---2*|-------|




            
            
Suggest correction
Creating personal tab
Creating personal tab
You can edit any tab online and save it as your Personal.

You can edit, replace or remove any tab part or add personal notes – all changes will be seen only by you.

Personal tabs can be accessed anytime from any device, even offline.
Learn more »
comments
print report bad tab
2 comments total.
0 reply
fsckball 10 Apr 01, 2011 07:01 PM

Master track from the other version's comment:
http://www.youtube.com/watch?v=7rbYSQpwqag&feature=related

Not sure why this has a crappy rank. Sounds pretty close to me.

0 reply
Tapwater 134 Aug 28, 2016 12:15 PM

This is a great tab, really works well!

The rank is probably crappy because some down voted it once aha

guest
You may want to rate the tab now too:
select rating
Wanna post a correction for this tab? Suggest correction