Oops, an error
Loading. Please wait.
We have an official Dumb tab made by UG professional guitarists. Check out the tab »
×
by Nirvana
33,852 views 18 this week
3 commentsread comments
1 2 3 4 5
x 9
add to favorites
×
Save as Personal and add changes to this tab that will be seen only by you. Learn more ›
×
You can save this tab as Personal to edit and correct it or add notes. All changes will be seen only by you. Learn more »
launch autoscroll
font size
0
reset
guitar tuner
backing track
0:00
0:00
edit
Autoscroll
slow
fast
+/-
esc
set tempo
stop
Author
(In the actual song the guitars an bass are down tuned by a stage)
Eb,Ab,Db an Gb

[Verse]
G|------------------|
D|------------------|  (x4)
A|--------------3330|
E|-0-0-5550-3-3-----|

[Chorus]
G|-----------------|
D|-----------------|   (x4)
A|-----------------|
E|0-00-000-3-33-333|

[Verse]
G|------------------|
D|------------------|  (x4)
A|--------------3330|
E|-0-0-5550-3-3-----|

[Chorus]
G|------------------|
D|------------------|    (x4)
A|------------------|
E|-0-00-000-3-33-333|

[Bridge]
G|-------------------|
D|-------------------|  (x3)
A|-------------------|
E|-2-22-222-3-33-333-|

(Then on the 4th time)
G|--------------------|
D|--------------------| 
A|--------------------|
E|-2-22-222-3>let ring|

[Verse]
G|------------------|
D|------------------|   (x4)
A|--------------3330|
E|-0-0-5550-3-3-----|

[Chorus]
G|------------------|
D|------------------|    (x6)
A|------------------|
E|-0-00-000-3-33-333|


************************************

| >let ring 

************************************

            
            
Suggest correction
Creating personal tab
Creating personal tab
You can edit any tab online and save it as your Personal.

You can edit, replace or remove any tab part or add personal notes – all changes will be seen only by you.

Personal tabs can be accessed anytime from any device, even offline.
Learn more »
comments
print report bad tab
3 comments total.
0 reply
BassyGuitarist 10 Mar 19, 2003 07:00 PM

This actually sounds pretty good from where I'm standing, good job.

+1 reply
eddienolan89 75 Jan 09, 2009 01:59 PM

G-------------------
for this on the bridge --> D-------------------
A-------------------
E-2-22-222-3-33-333-

G-------------------
i spose u ment --> D-------------------
A-2-22-222-3-33-333-
E-------------------

altogether its a pretty spot on tab!good man!

0 reply
Third-3ye 10 Oct 25, 2013 08:40 AM

G---------|----------
D---------|--------0-
A---------|-----333--
E-0-0-5550|-3-30-----

G---------|----------
D---------|----------
A---------|-----320--
E-0-0-5550|-3-30---3-


I think this sounds more like the verse, can't comment on the chrous though. I just love humming the bass for the verses :D lol

guest
You may want to rate the tab now too:
select rating
Wanna post a correction for this tab? Suggest correction