Oops, an error
Loading. Please wait.
We have an official Love Buzz tab made by UG professional guitarists. Check out the tab »
×
by Nirvana
2,160 views 3 this week
no commentswrite comment
1 2 3 4 5
3 more votes to show rating
add to favorites
×
Save as Personal and add changes to this tab that will be seen only by you. Learn more ›
×
You can save this tab as Personal to edit and correct it or add notes. All changes will be seen only by you. Learn more »
launch autoscroll
font size
0
reset
guitar tuner
backing track
0:00
0:00
edit
Autoscroll
slow
fast
+/-
esc
set tempo
stop
Author
I tabbed the whole song...
sorry for the first one I posted...
I know it has many wrong notes but now, this tab is more Accurate...

Love Buzz
Nirvana

Tuning: half-step down (Eb,G#,C#,F#)[in scale of Ab]

Intro:
(Bass Only)
*|------------6h7-----|------------6h7-----|------------7p6-----|
*|-(7)--5-7h8-----(7)-|-(7)--5-7h8-----(7)-|-(7)--5-7h8-----(7)-|
*|--------------------|--------------------|--------------------|
*|--------------------|--------------------|--------------------|
 4x(bass only)        4x(bass & drums)

*|----------6h7----|------------7p6----|
*|-7~-5-7h8-----7~-|-(7)--5-7h8-----(7)|
*|-----------------|-------------------|
*|-----------------|-------------------|
 8x(w/ distorted Guitar1)

Verse:
(Bass and Drums Only)
*|------------6h7-----|
*|-(7)--5-7h8-----(7)-| through out the whole verse...
*|--------------------| (if I'm not wrong, it takes about 4 measures...)
*|--------------------|

Chorus:
(Bass, Drums & Guitar all together)
*|-------------------------6--------------6------------6-7/9-9p7-6---------6-|
*|-7-7-5-7-7--5--7-7-5-7-7---5--7-7-5-7-7---5--7-7-5-7-------------7-7-5-7---|
*|---------------------------------------------------------------------------|
*|---------------------------------------------------------------------------|

*|------------6---|
*|-5--7-7-5-7---5-|
*|----------------|
*|----------------|

Adlib:
*|----------6h7----|
*|-7~-5-7h8-----7~-| then repeat verse & chorus part...
*|-----------------| then followed with:
*|-----------------|

*|-----------7h8-|
*|-5-7-5-7-5-----|
*|---------------|
*|---------------|
 4x
*|------------------------------------------------------------|
*|------------------------------------------------------------|
*|--------3-----------3--------3-----------3------------3-----|
*|-0-4--4---2--2-4--4---2--2-4---4-2-4-2-4---4-2--4-2-4---4-2-|

*|-----------6h7-|--------------------------|
*|-5-7-5-7-5-----|--------------------------|
*|---------------|-----3------------3-------|
*|---------------|-0-4---4-2-4--2-4---4-2-4-|

*|---------------5-6h8p6-5------------------|
*|-----------4h6----------------------------|
*|-----3-4/6----------------------3-4/6p4-3-|
*|-2-4------------------------0-4-----------|

*|------------------------------------------------------------------|
*|------------------------------------------------------------------|
*|-----3------------3------------3-4/6-4-3-----3------------3-------|
*|-0-4---4-2-4--2-4---4-2-4--2-4-----------0-4---4-2-4--2-4---4-2-4-|

*|-----------5-5-6-8p6-5------------------------|
*|-------4-6-------------6-4--------------------|
*|-0-4-6---------------------6-4---4------------|
*|-------------------------------6---6--4-6-4/2-|

*|---------------5-6h8p6-5---8-6-5-----------------|
*|-----------4-6-------------------6-4-------------|
*|-----3-4/6---------------------------6-4---4-----|
*|-0-4-------------------------------------6---6-4-|

*|------------------------------------------------------------------|
*|------------------------------------------------------------------|
*|-----2------------3------------3-4/6-4-3-----3------------3-------|
*|-0-4---4-2-4--2-4---4-2-4--2-4-----------0-4---4-2-4--2-4---4-2-4-|

*|-----------5-5-6h8p6-5---8~-6-5-----------------|
*|-------4-6----------------------6-4-------------|
*|-0-4-6------------------------------6-4---4-----|
*|----------------------------------------6---6-4-|

*|---------------5-6h8p6-5---8-6-5-----------------|
*|-----------4-6-------------------6-4-------------|
*|-----3-4/6---------------------------6-4---4-----|
*|-0-4-------------------------------------6---6-4-|

*|-----------5-5-6h8p6-5---8~6-5-------------------|
*|-------4-6---------------------6-4---------------|
*|-0-4-6-----------------------------6-4---4-------|
*|---------------------------------------6---6-4-0-|

*|---------6h7----|-----------------------|
*|-7~5-7h8-----7~-|-0-7-7-7-7--5(16x)-----|
*|----------------|-------------------(0)-|
*|----------------|-----------------------|


Legend:
 h- Hammer on
 p- Pull-off
 ~- Hold note
(n)- Break note


for any questions pm me in my E-mail add: bwahaha_13@yahoo.com

            
            
Suggest correction
Creating personal tab
Creating personal tab
You can edit any tab online and save it as your Personal.

You can edit, replace or remove any tab part or add personal notes – all changes will be seen only by you.

Personal tabs can be accessed anytime from any device, even offline.
Learn more »
Give kudos to tab author, rate the tab!
1 2 3 4 5
comments
print report bad tab
guest
You may want to rate the tab now too:
select rating
Wanna post a correction for this tab? Suggest correction