Oops, an error
Loading. Please wait.
We have an official Negative Creep tab made by UG professional guitarists. Check out the tab »
×
by Nirvana
60,674 views 99 this week
4 commentsread comments
1 2 3 4 5
x 17
add to favorites
×
Save as Personal and add changes to this tab that will be seen only by you. Learn more ›
×
You can save this tab as Personal to edit and correct it or add notes. All changes will be seen only by you. Learn more »
launch autoscroll
font size
0
reset
how to read this tab
guitar tuner
backing track
0:00
0:00
edit
Autoscroll
slow
fast
+/-
esc
set tempo
stop
Band: Nirvana
Song: Negative Creep

Tabbed by: xXd0p3d YouthXx

Tuning: Drop D


e|------------------------------------------------|
B|------------------------------------------------|
G|------------------------------------------------|
D|------------------------------------------------|
A|-0-0-0-3/12--0-0-12\3--0-0-0-3/12--0-0-12\3-----|
D|-0-0-0-3/12--0-0-12\3--0-0-0-3/12--0-0-12\3-----|
   . . .       . .       . . .       . .
   ^play 4 times

e|----------------------------------------------------|
B|----------------------------------------------------|
G|----------------------------------------------------|
D|----------------------------------------------------|
A|-0-0-0-3/12--0-0-12\3--0-0-0-3/12--0-0-12\3---------|
D|-0-0-0-3/12--0-0-12\3--0-0-0-3/12--0-0-12\3--5b-----|
   . . .       . .       . . .       . . 

e|-----------------------------------------------------|
B|-----------------------------------------------------|
G|-----------------------------------------------------|
D|-----------------------------------------------------|
A|-0-0-0-3/12--0-0-12\3--0-0-0-3/12--0-0-12\3----------|
D|-0-0-0-3/12--0-0-12\3--0-0-0-3/12--0-0-12\3--13b-----|
   . . .       . .       . . .       . . 

e|-------------------------------------------------------|
B|-------------------------------------------------------|
G|-------------------------------------------------------|
D|-------------------------------------------------------|
A|-0-0-0-3/12--0-0-12\3--0-0-0-3/12--0-0-12\3------------|
D|-0-0-0-3/12--0-0-12\3--0-0-0-3/12--0-0-12\3-x-2h3b-----|
   . . .       . .       . . .       . .

e|-------------------------------------------------------------|
B|-------------------------------------------------------------|
G|-------------------------------------------------------------|
D|-------------------------------------------------------------|
A|-0-0-0-3/12--0-0-12\3--0-0-0-3/12--0-0-12\3--12-12-12-12-----|
D|-0-0-0-3/12--0-0-12\3--0-0-0-3/12--0-0-12\3--12-12-12-12-----|
   . . .       . .       . . .       . .

e|---------------------------------------|
B|---------------------------------------|
G|---------------------------------------|
D|---------------------------------------|
A|---------------------------------------|
D|-12b-12\4b-4-4--10b-10/13b-13-13\7b----|
  ^play 8 times

e|----------------------------------------------------|
B|----------------------------------------------------|
G|----------------------------------------------------|
D|----------------------------------------------------|
A|-0-0-0-3/12--0-0-12\3--0-0-0-3/12--0-0-12\3---------|
D|-0-0-0-3/12--0-0-12\3--0-0-0-3/12--0-0-12\3--5b-----|


e|-----------------------------------------------------|
B|-----------------------------------------------------|
G|-----------------------------------------------------|
D|-----------------------------------------------------|
A|-0-0-0-3/12--0-0-12\3--0-0-0-3/12--0-0-12\3----------|
D|-0-0-0-3/12--0-0-12\3--0-0-0-3/12--0-0-12\3--13b-----|
  

e|-------------------------------------------------------|
B|-------------------------------------------------------|
G|-------------------------------------------------------|
D|-------------------------------------------------------|
A|-0-0-0-3/12--0-0-12\3--0-0-0-3/12--0-0-12\3------------|
D|-0-0-0-3/12--0-0-12\3--0-0-0-3/12--0-0-12\3-x-2h3b-----|
 

e|-------------------------------------------------------------|
B|-------------------------------------------------------------|
G|-------------------------------------------------------------|
D|-------------------------------------------------------------|
A|-0-0-0-3/12--0-0-12\3--0-0-0-3/12--0-0-12\3--12-12-12-12-----|
D|-0-0-0-3/12--0-0-12\3--0-0-0-3/12--0-0-12\3--12-12-12-12-----|


e|---------------------------------------|
B|---------------------------------------|
G|---------------------------------------|
D|---------------------------------------|
A|---------------------------------------|
D|-12b-12\4b-4-4--10b-10/13b-13-13\7b----|
  ^play 8 times

e|----------------------------------------------------|
B|----------------------------------------------------|
G|----------------------------------------------------|
D|----------------------------------------------------|
A|-0-0-0-3/12--0-0-12\3--0-0-0-3/12--0-0-12\3---------|
D|-0-0-0-3/12--0-0-12\3--0-0-0-3/12--0-0-12\3--5b-----|
   . . .       . .       . . .       . . 

e|-----------------------------------------------------|
B|-----------------------------------------------------|
G|-----------------------------------------------------|
D|-----------------------------------------------------|
A|-0-0-0-3/12--0-0-12\3--0-0-0-3/12--0-0-12\3----------|
D|-0-0-0-3/12--0-0-12\3--0-0-0-3/12--0-0-12\3--13b-----|
   . . .       . .       . . .       . . 

e|-------------------------------------------------------|
B|-------------------------------------------------------|
G|-------------------------------------------------------|
D|-------------------------------------------------------|
A|-0-0-0-3/12--0-0-12\3--0-0-0-3/12--0-0-12\3------------|
D|-0-0-0-3/12--0-0-12\3--0-0-0-3/12--0-0-12\3-x-2h3b-----|
   . . .       . .       . . .       . .

e|-------------------------------------------------------------|
B|-------------------------------------------------------------|
G|-------------------------------------------------------------|
D|-------------------------------------------------------------|
A|-0-0-0-3/12--0-0-12\3--0-0-0-3/12--0-0-12\3--12-12-12-12-----|
D|-0-0-0-3/12--0-0-12\3--0-0-0-3/12--0-0-12\3--12-12-12-12-----|
   . . .       . .       . . .       . .

e|---------------------------------------|
B|---------------------------------------|
G|---------------------------------------|
D|---------------------------------------|
A|---------------------------------------|
D|-12b-12\4b-4-4--10b-10/13b-13-13\7b----|
  ^play till fade out


************************************

| x  Dead note
| h  Hammer-on
| b  Bend
| /  Slide up
| \  Slide down

************************************

            
            
Suggest correction
Creating personal tab
Creating personal tab
You can edit any tab online and save it as your Personal.

You can edit, replace or remove any tab part or add personal notes – all changes will be seen only by you.

Personal tabs can be accessed anytime from any device, even offline.
Learn more »
comments
print report bad tab
4 comments total. Showing first comments.
0 reply
schinosky 10 Apr 22, 2009 10:20 AM

It goes, three open notes, slide from 3 to 12, two opens then slide back to 3. Instead of three each time. That's my perception of the song. Correct me if I'm wrong please :)

0 reply
Rockspider333 10 Jul 14, 2009 07:32 AM

Negative Creep

INTRO
e|--------------------------------------------------|
B|--------------------------------------------------|
G|--------------------------------------------------|
D|--------------------------------------------------|
A|-0-0-3/12-0-0-0-0-12\3-0-0-3/12-0-0-0-0-12\3------|
D|-0-0-3/12-0-0-0-0-12\3-0-0-3/12-0-0-0-0-12\3------| x4
PM . . . . . . . . . . . .

VERSE
e|--------------------------------------------------------------------------------|
B|--------------------------------------------------------------------------------|
G|--------------------------------------------------------------------------------|
D|--------------------------------------------------------------------------------|
A|-0-0-3/12-0-0-0-0-12\3-0-0-3/12-0-0-0-0-12\3-0-0-3/12-0-0-0-0-12\3-0-0-0-0------|
D|-0-0-3/12-0-0-0-0-12\3-0-0-3/12-0-0-0-0-12\3-0-0-3/12-0-0-0-0-12\3-0-0-0-0--5b--|
. . . . . . . . . . . . . . . . . . . . . .

e|--------------------------------------------------------------------------------|
B|--------------------------------------------------------------------------------|
G|--------------------------------------------------------------------------------|
D|--------------------------------------------------------------------------------|
A|-0-0-3/12-0-0-0-0-12\3-0-0-3/12-0-0-0-0-12\3-0-0-3/12-0-0-0-0-12\3-0-0-0-0------|
D|-0-0-3/12-0-0-0-0-12\3-0-0-3/12-0-0-0-0-12\3-0-0-3/12-0-0-0-0-12\3-0-0-0-0--19b-|
. . . . . . . . . . . . . . . . . . . . . .

e|--------------------------------------------------------------------------------|
B|--------------------------------------------------------------------------------|
G|--------------------------------------------------------------------------------|
D|--------------------------------------------------------------------------------|
A|-0-0-3/12-0-0-0-0-12\3-0-0-3/12-0-0-0-0-12\3-0-0-3/12-0-0-0-0-12\3-0-0-0-0------|
D|-0-0-3/12-0-0-0-0-12\3-0-0-3/12-0-0-0-0-12\3-0-0-3/12-0-0-0-0-12\3-0-0-0-0--3b--|
. . . . . . . . . . . . . . . . . . . . . .

e|------------------------------------------------------------------------------------|
B|------------------------------------------------------------------------------------|
G|------------------------------------------------------------------------------------|
D|-----------------------------------------------------------------------0-0-0-0-0-0--|
A|-0-0-3/12-0-0-0-0-12\3-0-0-3/12-0-0-0-0-12\3-0-0-3/12-0-0-0-0-12\3-0-0-0-0-0-0-0-0--|
D|-0-0-3/12-0-0-0-0-12\3-0-0-3/12-0-0-0-0-12\3-0-0-3/12-0-0-0-0-12\3-0-0-0-0-0-0-0-0--|
. . . . . . . . . . . . . . . . . . .

CHORUS
e|-------------------------------|
B|-------------------------------|
G|-------------------------------|
D|-------------------------------|
A|-5-5-3---------0-0-3-6--6-3-0--|
D|-------4--4-4------------------| x8

VERSE

CHORUS

VERSE

CHORUS x10, then Fade Out.

0 reply
Rockspider333 10 Jul 14, 2009 07:35 AM

In the intro and verses you palm mute only the zeros and not the slides between 12 and 3. Don't palm mute last 8 zeros at the end of every verse. :)

guest
You may want to rate the tab now too:
select rating
Wanna post a correction for this tab? Suggest correction