Oops, an error
Loading. Please wait.
We have an official Serve The Servants tab made by UG professional guitarists. Check out the tab »
×

Serve The Servants bass

version 2
version 2

Whole song

  • I Changed the tab for a "4 strings bass standard tuning" version.

Interactive

by Nirvana
3,106 views 24 this week
3 commentsread comments
1 2 3 4 5
x 4
add to favorites
×
Save as Personal and add changes to this tab that will be seen only by you. Learn more ›
×
You can save this tab as Personal to edit and correct it or add notes. All changes will be seen only by you. Learn more »
launch autoscroll
font size
0
reset
guitar tuner
backing track
0:00
0:00
edit
Autoscroll
slow
fast
+/-
esc
set tempo
stop
Author
-------------------------------------------------------------------------------
                             Nirvana - Serve the Servants
-------------------------------------------------------------------------------
Tabbed by: Zakkbassist
E-mail: zakkbassist@gmail.com
Bassist: Krist Novoselic
From the 1993 album "In Utero"
Tuning: Eb, Ab, Db, Gb or D#, G#, C#, F#
                     
                                Intro Strum
Gb|-12--12-------------------------------------------------------------------|
Db|-11----12/----------------------------------------------------------------|
Ab|-0------------------------------------------------------------------------|
Eb|--------------------------------------------------------------------------|
                                 
                                  Main riff
Gb|-------------------7---7--------------------------------------------------|
Db|-----7----7---------------------------------------------------------------|
Ab|---6----6---6--777---7----7------3---3----------2----2--------------------|
Eb|-7---------------------------2-x---2---2---1--x----0---0------------------|

                               Chorus (improvise)
Gb|--------------------------------------------------------------------------|
Db|--------------------------------------------------------------------------|
Ab|---------------4h5p4-4-4-4-4-4-4-4-4-------------------4-4-4-4-4-4-4-4----|
Eb|-5-5-5-5-5-5-5-----------------------5-5-5-5-5-5-5-4h5--------------------|

                               Bridge/Post chorus
Gb|-----------------------------------12--------------------------------------|
Db|-----------------------------------11--------------------------------------|
Ab|-----------------3-3-3-3-3-3-3-3/---9--------------------------------------|
Eb|-2-2-2-2-2-2-2-2-----------------------------------------------------------|

                                     Intro x1
                                    Main Riff x8
                                    Chorus x2
                                    Bridge x1
                                    Main Riff x4
                                    Chorus x2
                                    Bridge x1
                                    Main Riff x4
                                    Chorus x3
                                    Bridge x1


| /  slide up
| \  slide down
| h  hammer-on
| p  pull-off
| ~  vibrato
| +  harmonic
| x  Mute note
===============================================================================

            
            
Suggest correction
Creating personal tab
Creating personal tab
You can edit any tab online and save it as your Personal.

You can edit, replace or remove any tab part or add personal notes – all changes will be seen only by you.

Personal tabs can be accessed anytime from any device, even offline.
Learn more »
comments
print report bad tab
3 comments total.
+1 reply
790FX 736 Oct 28, 2014 09:48 AM

Good tab - sounds great. I think the end of the Main Riff is a bit wrong:
Ab|-----3---3---------2---2---|
Eb|-2-x---2---2---0-x---0---0-| instead of your's.

0 reply
zakkbassist 409 Oct 28, 2014 03:10 PM, edited at 07:12 pm

Thanks for the correction, 79OFX. You're correct, it does sound better if not more accurate than mine does. I think it sounds better if you still add the first "1" in there, and leave the last two open.

0 reply
opusthecat 50 Feb 24, 2016 01:58 PM

Whole bunch of wrong in this. The intro bass is an open Eb low note. The main riff doesn't follow the guitar like that. The chorus goes up an octave every other time. Bridge is even wrong, goes from the 2 to the 3 on the same string then ends on the 4th fret of Ab string (C#).

guest
You may want to rate the tab now too:
select rating
Wanna post a correction for this tab? Suggest correction