Oops, an error
Loading. Please wait.
We have an official Smells Like Teen Spirit tab made by UG professional guitarists. Check out the tab »
×

Smells Like Teen Spirit bass

version 2
version 2

Whole song

by Nirvana
225,481 views 21 this week
48 commentsread comments
1 2 3 4 5
x 83
add to favorites
×
Save as Personal and add changes to this tab that will be seen only by you. Learn more ›
×
You can save this tab as Personal to edit and correct it or add notes. All changes will be seen only by you. Learn more »
launch autoscroll
font size
0
reset
guitar tuner
backing track
0:00
0:00
edit
Autoscroll
slow
fast
+/-
esc
set tempo
stop
Author
Unregistered
England! Еhe REAL tab for Nirvana - Smells Like Teen Spirit is as follows. 
This is from the Nirvana Bass Collection book so this is right!

[Intro]
           *            Bass fig 1.                    *
G|--|------|---------------------|---------------------|
D|--|------|:--------------------|--------------------:|
A|--|------|:-----------1-1--1/3-|---------4-4--4--3\-:|
E|--|-4/6--|--1--1-1-------------|-4--4-4--------------|

play that : 3 time's : then the end part on the 4th time u play

G|----------------------|
D|----------------------|
A|-----------4-4-4-4-4\-|
E|-4--4-4---------------|

  *              Bass fig 2.                          *
G|--------------------------|-------------------------|
D|--------------------------|-------------------------|
A|-------------1--1--1--1/3-|-------------4--4--4--3\-|
E|-1--1--1--1---------------|-4--4--4--4--------------|

play that 5 and a half times... then play...

  * Bass fill 1.       *
G|---------------------|
D|---------------------|
A|-------------4--4--4-|
E|-4--4--4--4----------|

[Pre-Chorus]
G|--------------------------|-------------------------|
D|--------------------------|-------------------------|
A|-------------1--1--1--1/3-|-------------4--4--4--3\-|
E|-1--1--1--1---------------|-4--4--4--4--------------|(x4)

[Chorus]
G|-------------------|-------------------|
D|-------------------|-------------------|
A|----------1-1--1/3-|--------4-4--4--3\-|
E|-1--1-1------------|-4--4-4------------|(x6)


[Bridge]
G|------------------|--------------------------------|
D|------------------|--------------------------------|
A|------------------|------------------4--4---4---3\-|
E|-1--1--0--1--2--2-|-4----4--4----------------------|(x2)


[Guitar Solo]
G|-----------------------------|----------------------------|
D|-----------------------------|----------------------------|
A|------------------1--1---1/3-|--------------4--4---4---3\-|
E|-1----1--1-------------------|-4---4--4-------------------|(x8)

G|---------------------------------|------------------------|
D|---------------------------------|------------------------|
A|-----------------1---1---1---1/3-|--------------4--4--4--3|
E|-1---1---1---1-------------------|-4--4--4--4-------------|(x2)

Then back to verse where you play up to the chorus (played 5 times) 
then skip the bridge and guitar solo to play...

G|------------------|------------------|
D|------------------|------------------|
A|---------1-1--1/3-|--------4-4--4--3-|
E|-1--1-1-----------|-4--4-4-----------|(x4)(recap memory, Chorus)


 then.... (bass fig 1.) i think 4 times....
G|----------------------|-------------------------|
D|----------------------|-------------------------|
A|-------------1-1--1/3-|-------------4-4--4---3\-|
E|-1----1-1-------------|-4----4-4----------------|

G|------|-----|-----|
D|------|-----|-----|
A|------|-----|-----|
E|-1----|-----|-----| (let ring until end of song..)


It took me about 5 hours to read all the bloody info in this book to write it on here. 
If its not what the song sounds like your either

1. playing it wrong
2. not practising enough
(or)
3. i tabbed it wrong

If you think its 3 then contact me..
Cheers!



************************************

| /  Slide up
| \  Slide down

************************************

            
            
Suggest correction
Creating personal tab
Creating personal tab
You can edit any tab online and save it as your Personal.

You can edit, replace or remove any tab part or add personal notes – all changes will be seen only by you.

Personal tabs can be accessed anytime from any device, even offline.
Learn more »
comments
print report bad tab
48 comments total. Showing first comments. show 2 bad comments
+3 reply
samitch04 10 May 13, 2006 02:21 PM

just dosint sound right

guest
Wanna post a correction for this tab? Suggest correction