Oops, an error
Loading. Please wait.
We have an official Smells Like Teen Spirit tab made by UG professional guitarists. Check out the tab »
×

Smells Like Teen Spirit bass

version 3
version 3

Whole song

by Nirvana
72,674 views 48 this week
19 commentsread comments
1 2 3 4 5
x 36
add to favorites
×
Save as Personal and add changes to this tab that will be seen only by you. Learn more ›
×
You can save this tab as Personal to edit and correct it or add notes. All changes will be seen only by you. Learn more »
launch autoscroll
font size
0
reset
guitar tuner
backing track
0:00
0:00
edit
Autoscroll
slow
fast
+/-
esc
set tempo
stop
Author
Unregistered
Nirvana, Smells Like Teen Sprit.
 Tabbed by Tom gettinrowdy2k@hotmail.com.
  
I am sick of seeing the wrong tab 4 this song so i decided to give u the good people the real version.
This is the absoulotely correct version because we have played it at gigs!!!

Tuning - Standard

G------------------------| The Chorus Intro and everything 
D------------------------| Bit. Play it u will recognise...
A--------1-1------4-4----| (up down strokes)
E---1-1-1----4-4-4-------|

G-------------------------------------| Play this all the time 
D-------------------------------------| Except intro, chorus and 
A----------1-1-1-1--------4-4-4-4-----| after the chorus.
E---1-1-1-1--------4-4-4-4------------|

G-----------------------------| Play after Chorus x 2
D-----------------------------| (the hey bit)
A-----------------------------|
E---1-1-2-2---1-1-6-6-4-4-----| 

:: Ultimate Guitar Archive :: 
http://www.ultimate-guitar.com

            
            
Suggest correction
Creating personal tab
Creating personal tab
You can edit any tab online and save it as your Personal.

You can edit, replace or remove any tab part or add personal notes – all changes will be seen only by you.

Personal tabs can be accessed anytime from any device, even offline.
Learn more »
comments
print report bad tab
19 comments total. Showing first comments.
+5 reply
Scourge441 501 Nov 19, 2005 01:31 PM

The part after the chorus actually goes:

G---------------------------------|
D---------------------------------|
A---------------------------------|
E---1-1-0-1-2-2---1-1-6-6-4-4-----|

+3 reply
talbot466 10 May 01, 2006 09:47 AM

thanks dude, ive been lookin for the right version 4 ages and ages =]

-2 reply
Robnfguitarplay 42 Jun 24, 2006 03:06 PM

The part after the chorus actually goes:

G---------------------------------|
D---------------------------------|
A---------------------------------|
E---1-1-1-2-3-4----4-4-3-2--------|

guest
Wanna post a correction for this tab? Suggest correction