Oops, an error
Loading. Please wait.
We have an official Smells Like Teen Spirit tab made by UG professional guitarists. Check out the tab »
×

Smells Like Teen Spirit solo tab

version 1
version 1

Solo

  • This tab uses less hand movement, and overall simp... Show more
  • Just the way Kurt plays that.

Video

by Nirvana
535,289 views 1,635 this week
58 commentsread comments
1 2 3 4 5
x 217
add to favorites
×
Save as Personal and add changes to this tab that will be seen only by you. Learn more ›
×
You can save this tab as Personal to edit and correct it or add notes. All changes will be seen only by you. Learn more »
launch autoscroll
font size
0
reset
how to read this tab
guitar tuner
backing track
0:00
0:00
edit
Autoscroll
slow
fast
+/-
esc
set tempo
stop
e|------------------|---------------------|-----------------|---------------------|
B|------------------|---------------------|-----------------|---------------------|
G|-------8---10-----|----8-8b(10)r(8)-6-5-|-----6-5---------|---------------------|
D|----10----------6-|---------------------|-----------8---6-|----8-8b(10)r(8)-6-5-| x2
A|------------------|---------------------|-----------------|---------------------|
E|------------------|---------------------|-----------------|---------------------|
                  *                     *                 *                     *

e|----------------|----------------|
B|----------------|----------------|
G|----------------|----------------|
D|----6-5-----6-5-|----6-5---6-5-5\|
A|----------------|----------------|
E|----------------|----------------|
                *

e|----------------|----------------|     |----------------|
B|----------------|----------------|     |----------------|
G|----------------|----------------|     |----------------|
D|3---6-5-----6-5-|----6-5---6-5-5\| x3, |3---------------|
A|----------------|----------------|     |----------------|
E|----------------|----------------|     |----------------|
                *

========================================

| \  - slide down (legato)
| b  - bend
| r  - release bend
| *  - hold note over to the next bar

========================================

            
            
Suggest correction
Creating personal tab
Creating personal tab
You can edit any tab online and save it as your Personal.

You can edit, replace or remove any tab part or add personal notes – all changes will be seen only by you.

Personal tabs can be accessed anytime from any device, even offline.
Learn more »
comments
print report bad tab
58 comments total. Showing first comments.
+1 reply
Mike_rocka_boy 106 Sep 28, 2005 04:53 PM

good tab man!

+2 reply
Carsonp555 133 Oct 06, 2005 05:30 PM

very nice tab

+7 reply
HEADBANG^ 10 Oct 08, 2005 10:55 PM

E|--------------------------------------------
B|--------------------------------------------
G|----8-10---8/8b\8-6-5-----------------------
D|-10------6-----------11-10-8-6-11/11b\11-6-5
A|--------------------------------------------
E|--------------------------------------------

this isn't right. the last thing ''11/11b\11-6-5'' sounds awfull...

guest
Wanna post a correction for this tab? Suggest correction