Oops, an error
Loading. Please wait.
We have an official Smells Like Teen Spirit tab made by UG professional guitarists. Check out the tab »
×

Smells Like Teen Spirit solo tab

version 2
version 2

Solo

  • This tab uses less hand movement, and overall simp... Show more
  • Just the way Kurt plays that.

Video

by Nirvana
3,037 views 303 this week
no commentswrite comment
1 2 3 4 5
x 5
add to favorites
×
Save as Personal and add changes to this tab that will be seen only by you. Learn more ›
×
You can save this tab as Personal to edit and correct it or add notes. All changes will be seen only by you. Learn more »
launch autoscroll
font size
0
reset
how to read this tab
guitar tuner
backing track
0:00
0:00
edit
Autoscroll
slow
fast
+/-
esc
set tempo
stop
About this tab version
This tab uses less hand movement, and overall simplifies an already easy solo, so that any beginner that knows how to bend can play. Was this info helpful? Yes No
[Solo]
e|---------------------------------------|
B|---4-6---4-4br4------------------------|
G|-5-------------6-5-6-5-3-1-3-3br3------|
D|-------6-------------------------6-5---|
A|---------------------------------------|
E|---------------------------------------|

e|---------------------------------------|
B|---4-6---4-4br4------------------------|
G|-5-------------6-5-6-5-3-1-3-3br3------|
D|-------6-------------------------6-5---|
A|---------------------------------------|
E|---------------------------------------|

e|------------------|
B|------------------|
G|------------------|
D|--6-5-6-5-6-5\3---|
A|------------------|
E|------------------|

e|---------------------|
B|---------------------|
G|---------------------|
D|-6-5-6-5-6-5-6-5\3---|
A|---------------------|
E|---------------------|

e|---------------------|
B|---------------------|
G|---------------------|
D|-6-5-6-5-6-5-6-5\3---|
A|---------------------|
E|---------------------|


e|---------------------|
B|---------------------|
G|---------------------|
D|-6-5-6-5-6-5-6-5\3---|
A|---------------------|
E|---------------------|


************************************

| br  Bend release
| \   Slide down

************************************

            
            
Suggest correction
Creating personal tab
Creating personal tab
You can edit any tab online and save it as your Personal.

You can edit, replace or remove any tab part or add personal notes – all changes will be seen only by you.

Personal tabs can be accessed anytime from any device, even offline.
Learn more »
comments
print report bad tab
guest
You may want to rate the tab now too:
select rating
Wanna post a correction for this tab? Suggest correction