Oops, an error
Loading. Please wait.

The Money Will Roll Right In tab

version 3
version 3

Whole song

Interactive

by Nirvana
19,578 views 51 this week
5 commentsread comments
1 2 3 4 5
x 17
add to favorites
×
Save as Personal and add changes to this tab that will be seen only by you. Learn more ›
×
You can save this tab as Personal to edit and correct it or add notes. All changes will be seen only by you. Learn more »
launch autoscroll
font size
0
reset
how to read this tab
guitar tuner
edit
Autoscroll
slow
fast
+/-
esc
set tempo
stop
Author
-------------------------------------------------------------------------------
                             The money will roll right in - Nirvana
-------------------------------------------------------------------------------

Tabbed by: Mr.Rymy
Email: rymylys@hotmail.com

Tuning: Half-Step Down

Use a lot of distortion.

Other interpretations are possible.


Verse
e|---------------------------------------------------------------------------|
B|---------------------------------------------------------------------------|
G|---------------------------------------------------------------------------|
D|---------------------------------------------------------------------------|
A|---------------------------------------------------------------------------|
E|--0-0-0-0-0-2-3-4----------------------------------------------------------|

Chorus
e|---------------------------------------------------------------------------|
B|---------------------------------------------------------------------------|
G|---------------------------------------------------------------------------|
D|--3--3-3--3-3-3-3-3-3-3--3-3-3/5--5-5--5-5-5\4-4-4\3--3-3-3----------------|
A|--3--3-3--3-3-3-3-3-3-3--3-3-3/5--5-5--5-5-5\4-4-4\3--3-3-3----------------|
E|--1--1-1--1-1-1-1-1-1-1--1-1-1/3--3-3--3-3-3\2-2-2\1--1-1-1----------------|

Solo
e|---------------------------------------------------------------------------|
B|---------------------------------------------------------------------------|
G|--16b-16---\9b8-9-----------------17b-17---\10b9-10------------------------|
D|--15b-15-\7---7-7-----------------16b-16-\8----8--8------------------------|
A|----------------x---------------------------------x------------------------|
E|----------------0-0-0-0-0-0-2-3-4-----------------0-0-0-0-0-0-2-3-4--------|

e|---------------------------------------------------------------------------|
B|---------------------------------------------------------------------------|
G|--18b-18---\11b10-11-----------------20b-20----\13b12-13-------------------|
D|--17b-17-\9-----9--9-----------------19b-19-\11----11-11-------------------|
A|-------------------x-----------------------------------x-------------------|
E|-------------------0-0-0-0-0-0-2-3-4-------------------0-0-0-0-0-0-2-3-4---|


| /  slide up
| \  slide down
| h  hammer-on
| p  pull-off
| ~  vibrato
| +  harmonic
| x  Mute note
| b  Bend
===============================================================================

            
            
Suggest correction
Creating personal tab
Creating personal tab
You can edit any tab online and save it as your Personal.

You can edit, replace or remove any tab part or add personal notes – all changes will be seen only by you.

Personal tabs can be accessed anytime from any device, even offline.
Learn more »
comments
print report bad tab
5 comments total. Showing first comments.
0 reply
Teen Spirit 666 Apr 22, 2009 07:34 AM

another top class tab man. keep it up.

0 reply
Rockspider333 10 Apr 24, 2009 06:59 PM

awesome tab dude 5/5
but the tuning is a half-step down

0 reply
Lunach1ck 10 Mar 07, 2013 04:03 PM

Half-step down, eh? I have been playing this on standard..lol

guest
You may want to rate the tab now too:
select rating
Wanna post a correction for this tab? Suggest correction