Oops, an error
Loading. Please wait.
We have an official You Know Youre Right tab made by UG professional guitarists. Check out the tab »
×
by Nirvana
21,524 views 33 this week
3 commentsread comments
1 2 3 4 5
x 10
add to favorites
×
Save as Personal and add changes to this tab that will be seen only by you. Learn more ›
×
You can save this tab as Personal to edit and correct it or add notes. All changes will be seen only by you. Learn more »
launch autoscroll
font size
0
reset
guitar tuner
backing track
0:00
0:00
edit
Autoscroll
slow
fast
+/-
esc
set tempo
stop
Author
Difficulty
intermediate
G|-----------------|
D|-----------------|
A|-----------------|x15
E|0h2--2-2-2-0-0-0-|

G|-------------------------------------------------------|
D|-------------------------------------------------------|
A|5--5-5-5----5---5--5---5-7-7---7-7-7----7---7-7-/9--9--|
E|---------2-----------2---------------5-----------------|

G|-----------------|
D|-----------------|
A|-----------------|x8
E|0h2--2-2-2-0-0-0-|
 
G|-------------------------------------------------------|
D|-------------------------------------------------------|
A|5--5-5-5----5---5--5---5-7-7---7-7-7----7---7-7-/9--9--|
E|---------2-----------2---------------5-----------------|

G|-------------------------------------------------------|
D|----------------------2h4--------------------------2-4-|
A|--------------0--4--4----------------------0-0-4-4-----|
E|2--2-2-2-0--2-------------2--2-2-2-0--2--2-------------|

G|----------------------------|
D|------------------------2-4-|x2
A|----------------0-0-4-4-----|
E|2--2-2-2-0--2--2------------|

G|-------------------------------------------------------|
D|-------------------------------------------------------|
A|5--5-5-5----5---5--5---5-7-7---7-7-7----7---7-7-/9--9--|
E|---------2-----------2---------------5-----------------|

G|---------------------------------|
D|---------------------------------|
A|---------------------------------|x4
E|0h2--2-2-2-0-0-0-0h2--2-2-2---2--|

G|-----------------|
D|-----------------|
A|-----------------|x8
E|0h2--2-2-2-0-0-0-|

G|-------------------------------------------------------|
D|-------------------------------------------------------|
A|5--5-5-5----5---5--5---5-7-7---7-7-7----7---7-7-/9--9--|
E|---------2-----------2---------------5-----------------|

G|-----------------|
D|-----------------|
A|-----------------|x8
E|0h2--2-2-2-0-0-0-|


G|-------------------------------------------------------|
D|-------------------------------------------------------|
A|5--5-5-5----5---5--5---5-7-7---7-7-7----7---7-7-/9--9--|
E|---------2-----------2---------------5-----------------|


G|----------------------------|
D|------------------------2-4-|
A|----------------0-0-4-4-----|x4
E|2--2-2-2-0--2--2------------|

G|----------------------------------------------------------------------|
D|----------------------------------------------------------------------|
A|----------------------------------------------------------------------|
E|0h2--2-2-2-0-0-0--0h2--2-2-2---2---0h2--2-2-2-0-0-0--0h2--5-4-5-4-2-4-|

G|-----------------------------------------------------------------|
D|-------------------------------------------------------------2-4-|
A|-----------------------------------------------------0-0-4-4-----|
E|0h2--2-2-2-0-0-0--0h2--2-2-2---2---0h2--2-2-2-0-2--2-------------|

G|-------------------------------------------------------|
D|-------------------------------------------------------|
A|5--5-5-5----5---5--5---5-7-7---7-7-7----7---7-7-/9--9--|
E|---------2-----------2---------------5-----------------|

G|----------------------------------|
D|----------------------------------|
A|----------------------------------|x4
E|0h2--2-2-2-0-0-0-0h2--2-2-2---2/--|

G|-------------------------------------------------------------------|
D|---------------------------------------------------------------2h4-|
A|--------------------------------------------------------0--4--4----|x2
E|0h2--2-2-2-0-0-0--0h2--2-2-2---2---0h2--2-2-2-0-0-0--2-------------|

Now just vary between the following fills after every E|0h2--2-2-2-0-0-0-0h2...

G|-------------|---------------|------------|---------------|
D|-------------|---------0-2h4-|------------|---------------|
A|-------------|---0--4--------|------------|---------------|
E|2-2-2---2/---|2--------------|5-4-5-4-2-4-|4-7--4-5-4-2-4-|

Hope this worked well for you aswell as it did me :)



************************************

| h  Hammer-on
| /  Slide up

************************************

            
            
Suggest correction
Creating personal tab
Creating personal tab
You can edit any tab online and save it as your Personal.

You can edit, replace or remove any tab part or add personal notes – all changes will be seen only by you.

Personal tabs can be accessed anytime from any device, even offline.
Learn more »
comments
print report bad tab
3 comments total.
0 reply
B.C.RichRulz 331 Oct 27, 2011 09:10 PM

helped a lot thank you :) 5 stars

0 reply
sonnos123 31 Jul 09, 2014 12:30 PM

This should be a half step down if you want to play it the same as it was on the original recording. nice tab though, thanks!

0 reply
Tapwater 134 Jul 08, 2015 09:36 AM

This is pretty spot on. Well done. If anyone needs the extra bit of help, here is the bass only track that really helped me to get this down.

https://www.youtube.com/watch?v=AlHzC0WKY2c

guest
You may want to rate the tab now too:
select rating
Wanna post a correction for this tab? Suggest correction