Oops, an error
Loading. Please wait.

All That You Are tab

by No-Man
952 views 1 this week
1 commentread comment
1 2 3 4 5
3 more votes to show rating
add to favorites
×
Save as Personal and add changes to this tab that will be seen only by you. Learn more ›
×
You can save this tab as Personal to edit and correct it or add notes. All changes will be seen only by you. Learn more »
launch autoscroll
font size
0
reset
how to read this tab
guitar tuner
edit
Autoscroll
slow
fast
+/-
esc
set tempo
stop
Author
-------------------------------------------------------------------------------
                             NO-MAN - All That You Are
-------------------------------------------------------------------------------
Tabbed by: szymi

Tuning: Standard

The whole song is played like this:

    C          Em           Am          F
e|---------------------------------------------------|
B|--------1-----------0-----------1-----------1------|
G|------0---0-------0---0-------2---2-------2---2----|
D|----2-------2---2-------2---2-------2---3-------3--|
A|--3-----------2-----------0-----------3------------|
E|---------------------------------------------------|

So if you want to play it acoustic, play those chords over the chorus or whole song as well.

            
            
Suggest correction
Creating personal tab
Creating personal tab
You can edit any tab online and save it as your Personal.

You can edit, replace or remove any tab part or add personal notes – all changes will be seen only by you.

Personal tabs can be accessed anytime from any device, even offline.
Learn more »
Give kudos to tab author, rate the tab!
1 2 3 4 5
comments
print report bad tab
1 comment total.
0 reply
LeafyTheSWFan 10 Jul 05, 2010 11:50 AM

I had this much figured out on my own.

However, when you get to the part where he sings, "This is not my life," the chord is NOT Am. I promise it is not. It's a different chord. I know this because I've been beating myself up over how the heck to play this for the past two months -_- Ah, the joys of being a beginner guitar player.

The tab for that piece is

-------------
----3--------
---3-3-------
--5---5------
-5-----------
-------------

I was excited to see the tab put on here finally because I thought there might be an easier way to play that part that I haven't figured out yet, but apparently not...

guest
You may want to rate the tab now too:
select rating
Wanna post a correction for this tab? Suggest correction