Oops, an error
Loading. Please wait.

Platinum Blonde Life bass

538 views 1 this week
no commentswrite comment
1 2 3 4 5
3 more votes to show rating
add to favorites
×
Save as Personal and add changes to this tab that will be seen only by you. Learn more ›
×
You can save this tab as Personal to edit and correct it or add notes. All changes will be seen only by you. Learn more »
launch autoscroll
font size
0
reset
guitar tuner
edit
Autoscroll
slow
fast
+/-
esc
set tempo
stop
Author
Difficulty
Hey guys!

Here's the tab, i couldnt find it anywhere, so i decided to become active for once and 
it myself (A) Good luck with it =p

It's possible it's not exactly the same as the tabs in the song, because i did it my way 
a bit..

Make a comment when there's something terribly wrong!

No Doubt -- Platinum Blonde Life

Intro
G |--------------------------------------------------------|
D |--------------------------------------------------------|
A |---------3--2--1-1-1-1-3p2h3---------3--2--1-1-1-1-3p2h3|2x
E |-1-1-1-1---------------------1-1-1-1--------------------|

Verse
G |------------------------------------|
D |------------------------------------|
A |-------------3-2-1-1-1-1-1-1-3-1----|  8x
E |-1-1-1-1-1-1------------------------|

I'm closing all the curtains
So don't you even bother
And they'm calling out the murder
But I'm underneath the covers
And who's fooling who
With this mood like a train
Watch me roll over
Get out of my way

Chorus
G |------------------------------------|
D |------------------------------------|
A |-------------3-2-1-1-1-1-1-1-3-1----|
E |-1-1-1-1-1-1------------------------|

G |-------------------------------------------------|
D |-------------------------------------------------|
A |-------------3-2-1-1-1-1-1-1-1-1---------66666666|
E |-1-1-1-1-1-1---------------------44444444--------|

G |------------------------------------|
D |------------------------------------|
A |-------------3-2-1-1-1-1-1-1-3-1----|
E |-1-1-1-1-1-1------------------------|

There's a knock on my door
But I'm not gonna open it
I'm gonna close my eyes
And maybe it will go away

Verse
I want a platinum blonde life
So I keep bleaching out the colors
I try to do what I oughta
But never drink enough water
Where did my lamb go?
I wish he could stay
I feel as empty as a widow
I'm gonna sleep it all away

Chorus

Bridge
G |--------------------|
D |----------------1/5-|
A |----------33-33-----|  8x
E |--33-33-3-----------|

I'm gonna sleep all trough the day
I'm gonna sleep my life away
I'm gonna sleep all through the day
I'm gonna sleep myself away

No chords
I'm gonna close my eyes and maybe it'll go away

Chorus

No chords
I'm gonna close my eyes and maybe it will go away

            
            
Suggest correction
Creating personal tab
Creating personal tab
You can edit any tab online and save it as your Personal.

You can edit, replace or remove any tab part or add personal notes – all changes will be seen only by you.

Personal tabs can be accessed anytime from any device, even offline.
Learn more »
Give kudos to tab author, rate the tab!
1 2 3 4 5
comments
print report bad tab
guest
You may want to rate the tab now too:
select rating
Wanna post a correction for this tab? Suggest correction