Oops, an error
Loading. Please wait.

A La Caldera tab

23 views 1 this week
no commentswrite comment
1 2 3 4 5
3 more votes to show rating
add to favorites
×
Save as Personal and add changes to this tab that will be seen only by you. Learn more ›
×
You can save this tab as Personal to edit and correct it or add notes. All changes will be seen only by you. Learn more »
launch autoscroll
font size
0
reset
how to read this tab
guitar tuner
edit
Autoscroll
slow
fast
+/-
esc
set tempo
stop
La saqué con un video que encontré de un cóver,
y como no estaba acá la subí.
Si hay algún error corríjanlo.

Intro x4 (Los acordes de base son E5, C#5, B5).

E|--------------------------------------9----
B|---12-----------12-------12-------------12-
G|-9------------9--------9------------9------
D|------9^10^11-----9-11------9^10^11--------
A|-------------------------------------------
E|-------------------------------------------

E|-------------------------------------------
B|---12-----------12-------12---------10-9---
G|-9------------9--------9-----------------9-
D|------9^10^11-----9-11------9^10^11--------
A|-------------------------------------------
E|-------------------------------------------


E|----------------
B|----------------
G|----------------
D|-6-7-9--7-6-7-9-
A|----------------
E|----------------

E5                       B5
Esta es la droga que nos impide dormir
D5                        A5
que nos convierte en puro nervio sin remedio
E5                        B5
contra este mundo que nos quiere devorar
D5                        A5
nuestras palabras son las armas que manejo.

F#5            A5                   E5
y nunca sabras si la suerte viene o va
F#5            A5             E5
vamos a cantar,alguien escuchara
F#5                           A5
quemando nuestras noche sin saber muy bien porque
B5
HASTA CUANDO!HASTA CUANDO!

E5*                               A5        G#5
MODAS QUE VIENEN Y DESAPARECEN PREFABRICAOS
   A5                     C#5
JUEGAN POR EL TRIUNFO CON CARTAS MARCADAS
  B5
FOSILIZAOS,MONTAOS EN SERIE
E5*                                       A5       G#5
UN MUNDO INMUNDO CONVIERTE LA MIERDA EN ACTUALIDAD
A5                  C#5
EL TIEMPO VUELA Y NADA ME SERENA
B5              B5 A5 C#5 B5 E5
DARLE MAS GAS A LA CAL-DE-RA VOY!

Intro

E5                    B5
es el silencio que me rompe el corazon
D5                         A5
quiero un estruendo en las sienes bombeando,
E5            B5
necesitamos tocar para vivir
D5                  A5
como el oxigeno que nos esta abrasando.

F#5              A5              E5
nunca olvides que otros te juzgaran,
F#5           A5                   E5
recriminandote cosas que pudiste hacer
F#5                         A5
saludo a todos ellos nos volveremos a ver...
B5
EN EL INFIERNO EN EL INFIERNO!

**ESTRIBILLO**

Esto se toca en la parte de "Los malos momentos...",
escuchen para ver cuándo tocarlo.

E|----------------------------------------------------------------
B|----------------------------------------------------------------
G|-9-6---------------6^9-------------6-4-------------6------------
D|-9-6-2-----------4-6^9-----------2-6-4-----------4-6-2----------
A|-7-4-2-----------4-4^7--7-9-7----2-4-2-----------4-4-2----------
E|-----0--0-2-4-0--2------------9--0------0-2-4-0--2---0----------

los malos momento cicatrizaran,
se los lleve el viento de los trague el tiempo
por estas canciones que hoy pasan veloces
E5                                   F#5      A5
silencio que explota ateos gracias a diooos!
E5                                     F#5     A5
No cambio esta vida por ninguna muerte
E5
Nunca indiferente, voy contra corriente
F#5                      A5               E5
Por toda esa gente que aguanta mis penas,
F#5                      A5                B5
que nos da su fuerza, yo tenso mis venas...

Estribillo

E5* tocarlo x799xx

            
            
Suggest correction
Creating personal tab
Creating personal tab
You can edit any tab online and save it as your Personal.

You can edit, replace or remove any tab part or add personal notes – all changes will be seen only by you.

Personal tabs can be accessed anytime from any device, even offline.
Learn more »
Give kudos to tab author, rate the tab!
1 2 3 4 5
comments
print report bad tab
guest
Wanna post a correction for this tab? Suggest correction